INTRO : [x2]



*Eduardo 'Skay' Bellinson (guitarra) b=bend (estirar la cuerda)
RE5 DO5 SIb5 DO (Punteo1)
E|---------------|---------------|----------------|-----------------------|
B|---------------|---------------|----------------|-----------------------|
G|---------7-7---|---------5-5---|----------3-3---|--2-------2------------| X1
D|-7-7-7-------7-|-5-5-5-------5-|-3-3-3--------3-|----5-3-5---3-b-/------|
A|-5-5---5-------|-3-3---3-------|-1-1---1--------|-------------------5---|
E|---------------|---------------|----------------|-----------------------|

*'Semilla' Bucciarelli (BAJO)
RE DO SIb DO
G|---------------|---------------|----------------|-----------------------|
D|-----7---------|-----5---------|-----3----------|--7-5---5-7------------|X1
A|-5-5-----------|-3-3-----------|-1-1------------|------8-----8---/--5---|
E|---------------|---------------|----------------|-----------------------|


*'Skay' Bellinson (B)
RE5 DO5 SIb5 DO (Punteo2)
E|---------------|---------------|----------------|------------------------|
B|---------------|---------------|----------------|------------------------|
G|---------7-7---|---------5-5---|----------3-3---|------------------------|X1
D|-7-7-7-------7-|-5-5-5-------5-|-3-3-3--------3-|--3-2-0-2-3-b~~~--------|
A|-5-5---5-------|-3-3---3-------|-1-1---1--------|------------------------|
E|---------------|---------------|----------------|------------------------|

*BAJO (B)
RE DO SIb DO
G|---------------|---------------|----------------|-------------------------|
D|-----7---------|-----5---------|-----3----------|-------------------------|X1
A|-5-5-----------|-3-3-----------|-1-1------------|--8-7-5-7-8--------------|
E|---------------|---------------|----------------|-------------------------|






VERSO:


-------

[Riff 1] 'Skay' Bellinson.
REm REm
E|----------------------------|----------------------------|
B|----------------------------|----------------------------|
G|----------------------------|----------------------------|
D|---0-2-3-2--------2-3-2-----|---0-2-3-2--------2-3-2-----|
A|-5---------3-0-5--------3-0-|-5---------3-0-5--------3-0-|
E|----------------------------|----------------------------|

*Guitarra 2 ( Toca estos acordes)
REm/RE#
E|------------------------------10~~~~------------------------10~~~-|
B|------------------------------10~~~~------------------------10~~~-|
G|------------------------------10~~~~------------------------12~~~-|
D|------------------------------12~~~~------------------------------|
A|------------------------------------------------------------------|
E|------------------------------------------------------------------|

*BAJO De Riff 1
REm REm
G|----------------------------|----------------------------|
D|---0-2-3-2--------2-3-2-----|---0-2-3-2--------2-3-2-----|
A|-5---------3-0-5--------3-0-|-5---------3-0-5--------3-0-|
E|----------------------------|----------------------------|

Riff 1 (REm)
'Y ahora tiro por que me toca , en este tiempo de plumaje blanco...


[Riff 2] 'Skay' Bellinson

SOLm SOLm SOLm SOLm
E|-----------------|-----------------|-----------------|--------------|
B|-----------------|-----------------|-----------------|--------------|
G|-0-0-2-3-2-----0-|---0-2-3-2-----0-|---0-2-3-2-----0-|-2-3-2--------|
D|-----------3-0---|-----------3-0---|-----------3-0---|-------3-0----|
A|-----------------|-----------------|-----------------|--------------|
E|-----------------|-----------------|-----------------|--------------|

*Guitarra 2 ( Toca estos acordes)
SOLm/SOL#
E|-------------------------------------3~~~~------------------------|
B|-------------------------------------3~~~~------------------------|
G|-------------------------------------3~~~~------------------------|
D|-------------------------------------5~~~~------------------------|
A|------------------------------------------------------------------|
E|------------------------------------------------------------------|

*BAJO De Riff 2 ( )= Dejar sonar

SOLm SOLm SOLm SOLm
G|-----------------|-----------------|-----------------|--------------|
D|-----------------|-----------------|-----------------|--------------|
A|--------------(0)|--------------(0)|--------------(0)|---------(0)--|
E|(3)-------(1)----|(3)-------(1)----|(3)-------(1)----|(3)---(1)-----|

Riff 2 (SOLm)
'Un mudo con tu voz y un ciego como yo ¡Vencedores vencidos!.





ESTRIBILLO:


-------------
(La Guitarra y el bajo son iguales a la INTRO).

RE5 DO5 SIb5 DO
E|---------------|---------------|----------------|-----------------------|
B|---------------|---------------|----------------|-----------------------|
G|---------7-7---|---------5-5---|----------3-3---|--2-------2------------| X1
D|-7-7-7-------7-|-5-5-5-------5-|-3-3-3--------3-|----5-3-5---3-b-/------|
A|-5-5---5-------|-3-3---3-------|-1-1---1--------|-------------------5---|
E|---------------|---------------|----------------|-----------------------|

REm DO5 SIb5 DO (Punteo1)
'¡Te has fugado! ¡Me hago humo! ¡Den la alarma!...'

RE5 DO5 SIb5 DO
E|---------------|---------------|----------------|------------------------|
B|---------------|---------------|----------------|------------------------|
G|---------7-7---|---------5-5---|----------3-3---|------------------------|X1
D|-7-7-7-------7-|-5-5-5-------5-|-3-3-3--------3-|--3-2-0-2-3-b~~~--------|
A|-5-5---5-------|-3-3---3-------|-1-1---1--------|------------------------|
E|---------------|---------------|----------------|------------------------|

REm DO5 SIb5 DO (Punteo2)
Ensayo general para la alarma actual, teatro antidisturbios...'





2°VERSO:

(Igual que el primero).
----------

Riff 1 (REm)
Se rompe loca mi anatomía con el humor de los sobrevivientes,
Riff 2 (SOLm)
de un mudo con tu voz de un ciego como yo ¡Vencedores vencidos!...





PUENTE:


--------
*'Skay' Bellinson (guitarra).

LA(V Traste) SOLm LA(V Traste) SOLm

E|-5555555555555555-|-33333333-3--|--------|-5555555555555555-|-33333333-3~~|
B|-5555555555555555-|-33333333-3--|--------|-5555555555555555-|-33333333-3~~|
G|-6666666666666666-|-44444444-4--|--------|-6666666666666666-|-44444444-4~~|
D|-7777777777777777-|-55555555-5--|--------|-7777777777777777-|-55555555-5~~|
A|------------------|-------------|--4-5-6-|------------------|-------------|x
E|------------------|-------------|--------|------------------|-------------|x

BAJO:
LA SOL LA SOL
G|------------------|-------------|--------|------------------|-------------|
D|------------------|-------------|--------|------------------|-------------|
A|------------------|-------------|--4-5-6-|------------------|-------------|
E|-5555555555555555-|-33333333-3--|--------|-5555555555555555-|-33333333-3--|







3°VERSO:

(Igual que el primero).
----------

Riff 1 (REm)
Leyendo diarios en un baño turco empañando Ray Bans, mascando un hueso
Riff 2 (SOLm)
tu perro, un perro cruel con la costumbre de no contemplarse con los restos.






2°ESTRIBILLO:

(Igual que el INTRO)
----------------

RE5 DO5 SIb5 DO (Punteo1).
¡Ovejero que descansa en manto negro!
RE5 DO5 SIb5 DO (Punteo2).
Enclavo general para la farsa actual teatro antidisturbios.






SOLO DE GUITARRA:


---------------------

*Eduardo 'Skay' Bellinson (guitarra1).
REm* REm* SOLm*
E|-10~~~~~~~~~~~--------|----------------10~~~--|-3~~-------3--3-------3--|
B|-10~~~~~~~~~~~-13-13b-|10-10-13-10-13--10~~~--|-3~~-6-3-6----3--6-3-6---|
G|-10~~~~~~~~~~~-12-12b-|-----------------------|-3~~-5--------3--5-------|
D|-12~~~~~~~~~~~--------|-----------------------|-5~~----------5----------|
A|----------------------|-----------------------|-------------------------|
E|----------------------|-----------------------|-------------------------|

SOLm* REm* REm*
-3~~-------3--5--3------|-10~~~~~~~~~~~--------|----------------10~~~--|-
-3~~-6-3-6----5--3-6--3-|-10~~~~~~~~~~~-13-13b-|10-10-13-10-13--10~~~--|-
-3~~---------------5----|-10~~~~~~~~~~~-12-12b-|-----------------------|-
-5~~--------------------|-12~~~~~~~~~~~--------|-----------------------|-
------------------------|----------------------|-----------------------|-
------------------------|----------------------|-----------------------|-
SIb* DO*
|-10~-/6-6--6^8-6/10-10~----|-10~/8-8---8^10--8/12~~~~~-----|
|-10~-/6---6----6/10-10~----|-10~/8---8-------8/------------|
|---------------------------|-------------------------------|
|---------------------------|-------------------------------|
|---------------------------|-------------------------------|
|---------------------------|-------------------------------|

BAJO: (durante el solo de guitarra)=
----
REm* REm * SOLm*
G|-----------------------|-----------------------|---2-3-2-3-----2-3-2---|
D|---2-3-2-3-----2-3-2---|---2-3-2-3-----2-3-2---|-5---------3-5-------3-|
A|-5---------3-5-------3-|-5---------3-5-------3-|-----------------------|
E|-----------------------|-----------------------|-----------------------|

SOLm* REm* REm* SIb* - DO*
G|---2-3-2-3-----2-3-2--|--------------------|--------------------|------|------|
D|-5---------3-5-------3|--2-3-2-3----2-3-2--|--2-3-2-3----2-3-2--|------|------|
A|----------------------|-5--------3-5------3|-5--------3-5------3|-1(1)-|-3(3)-|
E|----------------------|--------------------|--------------------|------|------|







4°VERSO:

(Igual que el primero).
----------

Riff 1 (REm)
En este rollo de monos de polvo hemos perdido el rastro unos minutos
Riff 2 (SOLm)
un par de monos mas (unos terrícolas) ¡Vencedores vencidos!..






3°ESTRIBILLO:

(Igual que el INTRO)
----------------

RE5 DO5 SIb5 DO (Punteo1).
¡Buena suerte! ¡Y mas que suerte! (sin alarma...).
RE5 DO5 SIb5 DO (Punteo2).
Me voy corriendo a ver que escribe en mi pared, la tribu de mi calle.




*REPITE EL PRIMER VERSO...

*REPITE EL 3°ESTRIBILLO...





SOLO DE SAXO:


----------------

[LA GUITARRA y EL BAJO TOCAN LA INTRO (2 Veces) DURANTE ESTE SOLO].


* 'Skay' Bellinson (guitarra)
RE5 DO5 SIb5 DO (Punteo1)
E|---------------|---------------|----------------|-----------------------|
B|---------------|---------------|----------------|-----------------------|
G|---------7-7---|---------5-5---|----------3-3---|--2-------2------------|
D|-7-7-7-------7-|-5-5-5-------5-|-3-3-3--------3-|----5-3-5---3-b-/------|
A|-5-5---5-------|-3-3---3-------|-1-1---1--------|-------------------5---|
E|---------------|---------------|----------------|-----------------------|
'la banda de mi calle...
*'Skay' Bellinson (B)
RE5 DO5 SIb5 DO (Punteo2)
E|---------------|---------------|----------------|------------------------|
B|---------------|---------------|----------------|------------------------|
G|---------7-7---|---------5-5---|----------3-3---|------------------------|
D|-7-7-7-------7-|-5-5-5-------5-|-3-3-3--------3-|--3---2---0---2---3-b~~~|
A|-5-5---5-------|-3-3---3-------|-1-1---1--------|------------------------|
E|---------------|---------------|----------------|------------------------|
'la tribu de mi calle...

(SE REPITE ESTA INTRO UNA VEZ MAS).




FINAL:


-----
GUITARRA: RE5
E|--------------|
B|--------------|
G|--(7)~~-------|
D|0-(7)~~-------|
A|--(5)~~-------|
E|--------------|

BAJO: RE
G|--------------|
D|--------------|
A|--(5)---------|
E|--------------|

--------El solo a mi me suena bien , espero que este bien.--




NOTACION:

x: nota muerta o apagada.
b: (bend) o en castellano: estirar cuerda
~~: efecto de vibrato
/: (slice) o deslizar.
(): dejar sonar


Acá van algunos videos


link: http://www.videos-star.com/watch.php?video=ilndLWmkUok


link: http://www.videos-star.com/watch.php?video=JTTQ-sGjf3c&feature=related


link: http://www.videos-star.com/watch.php?video=GBqU0xqVHTA&feature=related


link: http://www.videos-star.com/watch.php?video=SpYbYOiUuMY&feature=related


link: http://www.videos-star.com/watch.php?video=wltYJ2NJUxY&feature=related