Tablaturas faciles

Tablaturas faciles [Guitarra]

Antes de leer el post, te invitó a visitar mi nuevo post!
Sobre el guitarrista Dimebag Darrell


musica


http://www.taringa.net/posts/ebooks-tutoriales/17634063/Te-gustaria-tocar-como-Darrell-Riffer-Madness-Mega.html



Tablaturas


Hola Gente!! Primero que nada.. aca les traigo este post.. para aquellos Principiantes en la Guitarra (los que recien empiezan); les dejo estas tablaturas fáciles de Temas conocidos!!
*Podes Recomendar canciones (comentando o MP)
Bueno nada.. este un Post de Diez ni Nada x el Estilo.. En Fin.. Les Dejo Estas Canciones con sus tablaturas (Pueden ser los Solos o Intros no más..eh?) xP
Aaah; PD: lo normal. creo que todo esto pertenece al genero del rock o algo asi cerca de sus raices que se yo.. wée xd

Tabs

TABLATURAS DE CANCIONES 'FACILES'
[Ponele e.e', si sos principiante te va a costar]


Felíz Cumpleaños
E||-----------------|-------1----0---|-----------------|-------3----1--|
B||--1----1----3--|--1-------------|--1----1----3--|--1--------------|
G||-----------------|-----------------|-----------------|-----------------|
D||-----------------|-----------------|-----------------|-----------------|
A||-----------------|-----------------|-----------------|-----------------|
E||-----------------|-----------------|-----------------|-----------------|

------------8---|--5----1----1--|--0------------|--6----6----5--|
--1----1-------|-----------------|-------3--------|-----------------|
-----------------|-----------------|----------------|-----------------|
-----------------|-----------------|----------------|-----------------|
-----------------|-----------------|----------------|-----------------|
-----------------|-----------------|----------------|-----------------|

--1----3------|--1--------||
----------------|--1--------||
----------------|--2--------||
----------------|--3--------||
----------------|--3--------||
----------------|--1--------||



El Padrino - Guns N Roses
1|--0-3-2-0-3-0-2-0-------0-3-2-0-3-0-2-0-----------0-2-----0-3-
2|-0---------------1-3-0-0---------------0---------1-----0-4---3-------
3|-------------------------------------------3-2-0------0------------------
4|-----------------------------------------------------------2---------------
5|----------------------------------------------------------------------------
6|----------------------------------------------------------------------------

1|---------------------------|
2|-1-0-3-1-0-0-4-------|
3|---------------------------|
4|---------------------------|
5|---------------------------|
6|---------------------------|



La Pantera Rosa
1|------------------------------------------------------------------
2|------------------------------------------------------------------
3|---------------------------7--6----7-6-6-7--------------------
4|1-2-3-4--6--7--3--4--6--7------7--6-------7-6--55-----
5|------------------------------------------------------------------
6|------------------------------------------------------------------

1|----------7---------5-----------------------------------------------
2|-----------7----------5---------------------------------------------
3|------------7-----------5----7-7-7-7---7---5--------------------
4|1—2—3—4-------------------------------------7-5—5-7-0--
5|----------------------------------------------------------------------
6|----------------------------------------------------------------------
Nota; En esta parte(2da) tienen que usarla con 2 Dedos. En la parte de la 1ra cuerda hasta la tercera van subiendo de 7 a 5 ,y asi en la 1ra ,2da y 3ra cuerda.



The Final Coun*** - Europe
e-9p7-9---10p9-10-9-7-10p9-10---7p5-7-5-4----
B-------7---------------------7------------------------------
G-------------------------------------------- ---------------
D-------------------------------------------------------------
A-------------------------------------------------------------
E------------------------------------------------------------
Repetir 3 veces

e-5-4h5/7-5h7/9-7-5-4-2-10-9-9h10p9---------
B----------------------------------------------------------
G---------------------------------------------------------
D---------------------------------------------------------
A---------------------------------------------------------
E---------------------------------------------------------



Highway To Hell - Ac Dc
e-||-----------------|---------------|----------------------------------------------||
B-||o-2--2--2-----|-3--3--3-----|-3--3--3----3--3--3----------2--2-----o||
G-||--2--2--2-----|-2--2--0-----|-2--2--0----2--2--0-----2----2--2-------||
D-||o-2--2--2----|-0--0--0-----|-0--0--0----0--0--0-----0----2--2-----o||
A-||--0--0--0-----|---------------|----------------------------------0--0-------||
E-||----------------|(2)-2--3-----|-2--2--3----2--2--3-----2----------------||



Beat It - Michael Jackson
----------------------------------------------------------|
----------------------------------------------------------|
----------------------------------------------------------|
--------5-2-v-2/4-2--------------5-2-v-2/4-2------|
------2-------------5--5-------2-------------5---------|
-0--3---------------------0--3-------------------------|



New Divide - Linkin Park
---------------------------------------------I
---------------------------------------------I
--------------------------9-----------------|
------7--------11-----------9----11-----|
----------9--------9------------------9---|
--------------------------------------------|



The Little Things Give You Away - Linkin Park
------------------------------------------------------------------------------------|
------------------------------------------------------------------------------------|
------------------------------------------------------------------------------------|
---5--4—-2~---2--2—-4~---5--4—-2~---2--2—-4~--------4---4------|
------------------------------------------------------------------------------------|
------------------------------------------------------------------------------------|

---------------7--7-5---5------------------------7~-7-5---5~-------------------------|
---8-7-5-5--5---------8----7b(8)r7---8-7-5-5~-5~--------8----7b(8)r7--------|
---------------------------------------------------------------------------------------------|
---------------------------------------------------------------------------------------------|
------------------------------------------------------------------------------------- -------|
---------------------------------------------------------------------------------------------|

--------------------------10-10-10------------10---10-14--14-10--10-12-10-12-14-12-14--|
--8-7-5-5---5-7-5-7-8-7-8----------10-10-10-10--10------10-----10--------------------------|
----------7--------------------------------------------------------------------------------------------------|
--------------------------------------------------------------------------------------------------------------|
--------------------------------------------------------------------------------------------------------------|
--------------------------------------------------------------------------------------------------------------|




From Yesterday - 30 Seconds To Mars
----------------------------------------------------------------------------------------------I
----------------------------------------------------------------------------------------------I
--------9------9-------9-------9------9--------9------9------9------9------9------9---I
--7-7----7-7----7-7----7-7----7-7---7-6-6---6-6---6-6---6-6---6-6---6-6------I
----------------------------------------------------------------------------------------------I
----------------------------------------------------------------------------------------------I



Sweet Child O' Mine - Guns N Roses
|-----------------15---------14-----------|
|-----15-----------------------------------|
|---------14--12------14-----------14-|
|%-12---------------------------------%|
|-------------------------------------------|
|-------------------------------------------|

|------------------15--------14----------|
|------15---------------------------------|
|---------14--12--------14--------14-|
|%-14--------------------------------%|
|------------------------------------------|
|------------------------------------------|



In The End - Linkin Park
----------------------------------------I
----------------------------------------I
-----4-4------------------------------I
--2-------5-4-4-4-5-1-------------I
----------------------------------------I
----------------------------------------I



No More Sorrow - Linkin Park
{}----------------------------------------------
{}-5---7-8?-12--10?-12-13-12--------
{}---------------------------------------------
{}--------------------------------------------
{}--------------------------------------------
{}--------------------------------------------



Smoke On The Water - Deep Purple
|-------------------|---------------|----------------|--------|
|-------------------|---------------|----------------|--------|
|-0---3---5----0-|---3---6-5--|-0---3---5---3|---0---|
|-0---3---5----0-|---3---6-5---|-0---3---5--3I---0---|
|-------------------|---------------|----------------|--------|
|-------------------|---------------|----------------|--------|



Sweet Dreams - Marilyn Manson
1I---------------------------------------------
2I---------------------------------------------
3I---------------------------------------------
4I-------5----6---5--------------------------
5I---3-3---3----3---3----6/8----5/6------
6I--------------------44-----33-------------



Enter Sandman - Metallica
1|----------------------------------
2|----------------------------------
3|----------------------------------
4|------------5--------------------
5|--------7---------------7-------
6|----0-----------6---5----------



Nothing Else Matters - Metallica
|-----------0---------|-----------0--------|-----------0--------|
|--------0-----0-----|--------0-----0-----|--------0-----0----|
|-----0-----------0--|-----0-----------0--|-----0-----------0-|
|---------------------|----------------------|--------------------|
|---------------------|----------------------|--------------------|
|--0-----------------|--0-------------------|--0----------------|

|-----------0-----7--|--7--------7p0-------|--------7--8--7h8-7-5-|--7--5/2------|
|--------0-----0-----|-----0-----0---0-----|--0-----0--0-------------|--0--------5--|
|-----0---------------|--------0---------0--|-----0--------------------|----------------|
|----------------------|----------------------|---------------------------|----------------|
|----------------------|----------------------|---------------------------|----------------|
|--0------------------|--0-------------------|--0-----------------------|----------------|

|-----------2p0-------|-----------0--0--0--|--0----------3p0-----0--|
|--5-----5------5-----|--------5-----5--5--|--5------5-------5---5---|
|-----5------------5---|-----5--------5--5--|--5----5---5-------5-5--|
|------------------------|----------------------|---------------------------|
|--0--------------------|--0-----------0--2--|--3--3---------------3---|
|-----------------------|-----------------------|---------------------------|

Queen - We Will Rock You
E---------------------------------------------------------------
B---------------------------------------------------------------
G------------5---5------------2----2-------2---2----------------
D------------5---5------------2----2-------2---2----------------
A------------3---3------------0----0-------0---0----------------
E--------------------------------3-------------3------------------



guitarra

Metallica

Bueno Gente! hasta ahi llegué..la vagancia es grandee.. wé xd... estube horas haciendo este post.. aunque no lo parezca.. son pocas tabs igual....
Luego agrego más temas.. Ustedes Sugieran en los Comentarios via MP; y les coloco los temas!!
Eeh otra cosa.. Avisen si alguna tiene algun error... y repito.. pidan canciones y voy a tratar de color la tablatura... no ACORDES.. solo Tablaturas.
Saludos!!

marilyn manson


Si Visitas, Comentá.
Si Recomendas, Comentá.
Si Das Puntos, Comentá.
Si Comentás, Comentá.
Y, SI Queres Llorar, llorá.


Linkin Park