Tablaturas de Rock, Aprende a tocar guitarra facilmente





tablaturas de rock










Primero que nada quiero explicar que este tutorial esta orientado como una guía para quienes quieran iniciarse en el aprendizaje de tocar la guitarra



Tablaturas de guitarra




aprender a tocar guitarra facilm




LAS TABLATURAS



Las tablaturas para guitarra son como una partitura que muestra la posición de los dedos en la guitarra, pero que no da datos de tonos ni duración de las notas. Asi que para tocar una canción a traves de una tablatura, la debes haber escuchado antes para conocer el ritmo y sonido de la guitarra.


aprender a tocar rock


como tocar starway to heaven




Partes que componen el mastil de la guitarra:

TRASTES: En el mástil se encuentran los trastes, que son las divisiones en que se divide.

CUERDAS: La guitarra tiene 6 cuerdas de distinto grosor, la más fina que esta abajo, es la denominada 1ª cuerda, la siguiente es la 2ª, y así hasta la 6ª que es la más gruesa.


como tocar cocain de clapton




Mastil de la guitarra
......---
Mi 1ra. ||----------|---------------|--------------|-------------|-------------|-
Si 2da. ||----------|---------------|-------------|--------------|-------------|-
Sol 3ra.||----------|---------------|-------------|--------------|-------------|-
Re 4ta. ||----------|---------------|-------------|--------------|-------------|-
La 5ta. ||----------|---------------|--------------|--------------|-------------|-
Mi 6ta. ||----------|---------------|--------------|--------------|-------------|-
......___/1 Traste . 2 Traste . 3 Traste . 4 Traste . 5 Traste


La tablatura se compone de seis líneas horizontales que representan las seis cuerdas de la guitarra, la línea de arriba es la 1ª cuerda y la última línea es la 6ª:

e--------------------------primera cuerda
B-------------------------segunda cuerda
G-------------------------tercera cuerda
D------------------------cuarta cuerda
A------------------------quinta cuerda
E------------------------sexta cuerda



En estas líneas estaran unos números que muestran el traste que se tiene que pulsar:

e----1--------------------
B-------------------------
G-------3-----------------
D----------5--------------
A-------------------------
E-------------------------



Esto quiere decir que debes comenzar el punteo de guitarra pulsando la cuerda primera(e) en el traste 1, después sigue la cuerda tercera(G) en el traste 3, después sigues la cuerda cuarta(D) en el traste 5.
Si encuentras un 0 en la tablatura te esta indicando que la cuerda hay que tocarla sin pulsarla.




Cuando en la tablatura hay unos números sobre otros, los tienes que tocar al mismo tiempo y cada uno en su traste. Esto se llamaria acorde y se define como: dos o más notas sonando al mismo tiempo.

e--2-----------------------primera cuerda
B--3-----------------------segunda cuerda
G--------------------------tercera cuerda
D--------------------------cuarta cuerda
A--------------------------quinta cuerda
E--------------------------sexta cuerda

En la tablatura de arriba hay dos notas una encima de otra, sin dejar espacio. Esto indica que hay que tocarlas a la vez. La primera cuerda de la guitarra pisada en el traste 2 y la segunda cuerda pisada en el traste 3, presionas las dos cuerdas a la vez en sus trastes correspondientes y las tocas al mismo tiempo.



como tocar smell like teen spiri



SÍMBOLOS Y SIGNOS EN LAS TABLATURAS DE GUITARRA


A continuación os mostramos los simbolos y signos de las diferentes tecnicas que mas frecuentemente aparecen en las tablaturas para guitarra. En algunos tabs puede que estos simbolos y signos no signifiquen lo mismo, pero normalmente en estos casos se indicara en la tablatura de que tecnica de guitarra se trata.


Estos simbolos suelen estar escritos en inglés:

) = Bend

/ = Slide

~~ = Vibrato

h = Hammer on

p = Pulloff

PM = Palm mute

xx = Pick scrape (rasgar con la pua)

NH = Armonico natural (Natural armonic)

+ = Tremelo Pick

) = Unison Bend

| = Ghost Bend (Bend fantasma)

| = Ghost Bend and release (Bend fantasma y soltar)

* = Retroalimentacion descontrolada (Uncontrolled feedback)

como tocar hard as a rock.


BEND:

Se toca la primera nota y luego se estira la cuerda de la guitarra con el dedo que presiona el mástil hasta alcanzar un medio tono, tono completo o segun se indique.

E-|------------------|
B-|----5)------------|
G-|------------------|
D-|------------------|
A-|------------------|
E-|------------------|











link: http://www.youtube.com/watch?v=6sDCNzHFih8



Tablaturas de Rock, Aprende a tocar guitarra facilmente


HARMONICO NATURAL:

Se toca la cuerda ligeramente sin llegar a presionar con la mano que toca el mástil en el traste que se indique y despues pulsa en el trate la nota.












link: http://www.youtube.com/watch?v=BEeidwLdHs8


tablaturas de rock


HARMONICO ARTIFICIAL(PINCH):

Despues de que la nota es tocada normalmente, se toca ligeramente con la punta de el dedo de la mano que hace el pick , sin llegar a apagar el sonido de la nota (una octava más arriba de la nota tocada originalmente) para producir el sonido de un harmónico. (pinch) A.H.

E-|----9-------------|
B-|------------------|
G-|------------------|
D-|------------------|
A-|------------------|
E-|------------------|












link: http://www.youtube.com/watch?v=e5HHl-SQRIo



Tablaturas de guitarra


PALM MUTE:

La nota es ligeramente apagada con el filo de la mano que hace el pick mientras esta esta tocando las notas.

E-|------------------|
B-|------------------|
G-|------------------|
D-|------------------|
A-|------------------|
E-|--0--0--0--0---|










link: http://www.youtube.com/watch?v=p7ptu4z9Yxk




aprender a tocar guitarra facilm

SLIDE:

Se toca la nota primera nota y se corre el dedo hasta un trasto más arriba o más abajo segun sea el caso.La segunda nota no es tocada con la mano que hace el pick.

E-|------------------|
B-|----5/8----------|
G-|------------------|
D-|------------------|
A-|------------------|
E-|------------------|










link: http://www.youtube.com/watch?v=NzT55vj3hUM




aprender a tocar rock


SLIDE PICK:

Es lo mismo que el slide solo que la segunda nota si es tocada.

E-|------------------|
B-|----5/8-----------|
G-|------------------|
D-|------------------|
A-|------------------|
E-|------------------|


como tocar starway to heaven


SLIDE LARGO:

Se hace el pick durante el slide hasta alcanzar la nota deseada>

E-|------------------|
B-|----/5-----------|
G-|------------------|
D-|------------------|
A-|------------------|
E-|------------------|


como tocar cocain de clapton


SLIDE OFF:

Es el slide largo solo que hacia abajo.

E-|------------------|
B-|----5/----5-----|
G-|------------------|
D-|------------------|
A-|------------------|
E-|------------------|



como tocar smell like teen spiri


PICK SLIDE:

Con el filo de el pick (pua) se presiona sobre los trastos y se hace el slide.

E-|------------------|
B-|----x-----------|
G-|------------------|
D-|------------------|
A-|------------------|
E-|------------------|



como tocar hard as a rock.


HAMMER-ON:

Se toca la primera nota y la segunda se hace sonar por medio de un tap (presionar el trasto de la guitarra y lograr un sonido sin necesidad de hacer un punteo) la segunda nota.

E-|------------------|
B-|----5h7---------|
G-|------------------|
D-|------------------|
A-|------------------|
E-|------------------|











link: http://www.youtube.com/watch?v=pnyz3Vn-ks0


Tablaturas de Rock, Aprende a tocar guitarra facilmente



PULL-OFF:

Se colocan los dos dedos en las notas que se van a tocar, se toca la primera nota y se deja de presionar esta para dejar sonar la nota de más abajo. La segunda nota no es tocada con la mano que hace el pick (punteo).

E-|------------------|
B-|----7p5---------|
G-|------------------|
D-|------------------|
A-|------------------|
E-|------------------|











link: http://www.youtube.com/watch?v=o0YLCq-XkuQ


tablaturas de rock


TREMOLO PICKING:

La nota es tocada con la mano que hace el pick hacia arriba y hacia abajo lo más rápido que sea posible.

E-|------------------|
B-|----5------------|
G-|----/-------------|
D-|----/-------------|
A-|----/-------------|
E-|------------------|










link: http://www.youtube.com/watch?v=A6vQ01IQobY


Tablaturas de guitarra


VIBRATO:

Se toca la nota y se hace vibrar con el vibrato o palanca de la guitarra, o bien haciendo un bend lo más rápido posible hacia arriba y hacia abajo.

E-|------------------|
B-|----5~----------|
G-|------------------|
D-|------------------|
A-|------------------|
E-|------------------|










link: http://www.youtube.com/watch?v=SU7oW7_ymGw



aprender a tocar guitarra facilm










AHORA A PRACTICAR LO APRENDIDO




aprender a tocar rock




como tocar starway to heaven


como tocar cocain de clapton




TABLATURAS FACILES DE ROCK




Smoke On The Water de Deep Purple

--0---3---5------0---3--6--5------0---3---5----3---0-----||

(la pueden tocar en cualquier cuerda que igual les va a sonar muy bien)




Smoke On The Water de Deep Purple Version 2 o (mas arreglada)


6||------------------------------------------------------------------
5||------------------------------------------------------------------
4||--0---3---5------0---3--6--5------0---3---5----3---0-----
3||--0---3---5------0---3--6--5------0---3---5----3---0-----
2||------------------------------------------------------------------
1||------------------------------------------------------------------












link: http://www.youtube.com/watch?v=0GImi8l53q0


como tocar smell like teen spiri



tablatura de One de Metallica




e|------------------------------------------------------------------------------------------------------------------------------------
b|------------------------------------------------------------------------------------------------------------------------------------
g|-------------------------------------------------------------------------------------------(0)---------------------------------------
D|-----4-----0 (0)-------4-----0--(0)--------4-----0 (0)----------------4-----0-------------------------------------------------
A|-2-----2-----------------------------------2----2----------------------------------------------------------------------------------
E|----------------------3----3-------------------------------------------3-----3-----------------------------------------------------





e|-------------------------------------------------------------------------------------------------------------------------------------
b|-------------------------------------------------------------------------------------------------------------------------------------
g|-------------------------------------------------------------------------------------------------------------------------------------
D|----4------0--(0-)-----------------------4-----0--(0)-----------------4-----0--(0)---------------------------------------------
A|-2-----2------------------------------0-----0----------------------------------------------------------------------------2-----2--
E|----------------------------------------------------------------------3-----3-------------------------------------------0-----2----











link: http://www.youtube.com/watch?v=Sp7WegK46wA












link: http://www.youtube.com/watch?v=2CagSqUpUwo


como tocar hard as a rock.


Stack Shot Billy de Black Keys

e|------------------------------------------------
b|-5---------------------------5-----------------
g|-----7---5-----------5-7-------5-------------
d|--------------7-5-7--------------------5h7--
a|-0--0---0-----------------------0-------------
e|------------------------------------------------


e|-------------------------------------------------
b|-5----------------------------------------------
g|-----7---5------------5--7--5-5p2----------
d|--------------7-5-7----------------------------
a|-0--0---0----------------0--0-0--------------
e|-------------------------------------------------

Tablaturas de Rock, Aprende a tocar guitarra facilmente


Intro de Wish You Where Here de Pink Floyd


INTRO:
e--------------------------------3-------------------3---
B--------------------------------3-------------------3---
G--------------------------------0-------0----------0---
D---------------------0--2-----0----2-----2--------0---
A------------0-2---------------2--------------------2---
E-------3-----------------------x--------------------3---
(TOCAR 2 VECES)

e--------------------------3------------------------------------3---
B--------------------------3------------------------------------3---
G--------------------------0------------------------------------2---
D-----------------0--2----0------2-----0----------------------2---
A----------0-2------------2------------------2----0-----------0---
E---3----------------------X------------------------------------0---
(TOCAR 2 VECES)










link: http://www.youtube.com/watch?v=OdXCxLn3kWc



tablaturas de rock

Hard as a rock de AC/DC


e|-2--4-||-5--4-2-0-2-4-2 2--4-0 0--4-2 2--2-4-||5--4-2-0-2-4-2 2--4-0-0--4-2 2|
b|-0--0-||-0--0-0-0-0-0-0-0--0-0-0--0-0-0--0-0-||0--0-0-0-0-0-0-0--0-0-0--0-0-0|
g|-------||--------------------------------------------------||-----------------------------------------|
D|-------||--------------------------------------------------||-----------------------------------------|
A|-------||--------------------------------------------------||------------------------------------------|
E|-------||--------------------------------------------------||------------------------------------------|











link: http://www.youtube.com/watch?v=1dwDpABqV1c



Tablaturas de guitarra

All Apologies de Nirvana

1)------------------------------------------------------------------------------------------------------------
2)--------------------------------------------------------------------------------------------------------------
3)---------------------------------------------------------------------------------------------------------------
4)----------------------------------------------------11--11--9--8--------------------------------------------
5)------8--9--8--11--11--9--8---------8-9-8---------------------------------8-9--8--11--11--9--8---
6)-0---------------------------------0------------------------------------0------------------------------------

1)--------------------------------------------------------------
2)--------------------------------------------------------------
3)----------------------10--10--8--6------------------------
4)--------------------------------------------------------------
5)------8--9--8-----------------------------------------------
6)-0------------------------------------------------------------

aprender a tocar guitarra facilm


Lateratus de Tool

1||-----------------------------------------------||
2||-----------------------------------------------||
3||---------------------5------------------------||
4||--------7---5h7--------7--5h7----5p0--||
5||----------------------------------------------||
6||--0------------------------------------------||



aprender a tocar rock


Californication Red Hot Chilli Peppers

e -------------------------------------------------------------------------|
B ---------0----1---------------------------------------------------------|
G ------------- 2---------------------------------------0----2-----------|
D ----2------------2---0h2p0-2---------------------------0------0----|
A --0-----------------------------------3---------3----------------------3--|
E -----------------------------------------------1--------------------------|



e -------------------------------------------------------------------------|
B ---------0----1---------------------------------------------------------|
G ------------- 2---------------------------------------0-------2-----------|
D ----2--------------2---0h2p0-2----------------------------3------3-0-|
A --0-----------------------------------3---------3----------------------|
E -----------------------------------------------1-------------------------|











link: http://www.youtube.com/watch?v=Yk2eR5qIOjA



como tocar starway to heaven



Enter Sandman de Metallica

1|----------------------------------------------------------------------------------
2|-----------------------------------------------------------------------------------
3|-----------------------------------------------------------------------------------
4|--------------5--------------------------------------------------------------------
5|----------7-----------------7------------------------------------------------------
6|----0------------6---5-----------------------------------------------------------

1|------------------------------------------------------------------------------------------------------------
2|------------------------------------------------------------------------------------------------------------
3|------------------------------------------------------------------------------------------------------------
4|------------------------------------------------------------------------------------------------------------
5|----2-----2------2-----2------2-----2----2-/7-----2----2-----2-----2-----2----2---2-/7----------
6|----0-----0------0-----0------0-----0----0---------0----0----0-----0-----0-----0---0--------------


1|---------------------------------------------------------------------------
2|---------------------------------------------------------------------------
3|---------------------------------------------------------------------------
4|---------------------------------------------------------------------------
5|----------7---5---0---4---5---4----2----------------------------------
6|--6---5------3---0---2---3----2---0----------------------------------










link: http://www.youtube.com/watch?v=oKwjOFY91Jg



como tocar cocain de clapton






Paranoid de Black Sabbath

INTRO)
1-------------------------------------------------
2--------------------------------------------------
3-----------------------7h9--------------7------
4-----------------7h9-----------7h9--------9---
5---9-9-9---------------------------------------
6---7-7-7---------------------------------------


(PARTE 2)
1------------------------------------------------------------------
2------------------------------------------------------------------
3------------------------------------------------------------------
4---9-9-9-9-9-9-9-9-9-9--------------7-7-7-7-7-7------
5---7-7-7-7-7-7-7-7-7-7--------------5-5-5-5-5-5------
6-----------------------------------------------------------------


(PARTE 3)
1----------------------------------
2----------------------------------
3-----------------------------------
4---12----7-----9---12---------
5---10----5-----7---10---------
6----------------------------------

(PARTE 4)

1------------------------------------------------------------------------
2------------------------------------------------------------------------
3------------------------------------------------------------------------
4---9----5----7---9---9-9-9-9-9-9-9-9-9-9-9-9----9---5--7--9
5---7----3----5---7---7-7-7-7-7-7-7-7-7-7-7-7----7---3--5--7
6------------------------------------------------------------------------


(PARTE 5)
1-------------------------------------
2-------------------------------------
3--------------------------------------
4---9---------7----------9----------7
5---7---------5----------7----------5
6---------------------------------------











link: http://www.youtube.com/watch?v=maB2RkY4324



como tocar smell like teen spiri






Wake me Up When September ends De Green Day

e| |------------------|-----------------|------------------|-----------------|
B| |----3-----3-----|----3-----3-----|----3-----3-----|----3-----3-----|
G| |--0-----0-------|--0-----0-------|--0-----0-------|--0-----0-------|
D| |5-----5---------|5-----5---------|5-----5---------|5-----5---------|
A| |-----------------|------------------|-----------------|------------------|
E| |-----------------|------------------|-----------------|------------------|


e| |-----------------|------------------|------------------|-----------------|
B| |----3-----3-----|----3-----3-----|----3-----3-----|----3-----3-----|
G| |--0-----0-------|--0-----0-------|--0-----0-------|--0-----0-------|
D| |5-----5---------|4-----4---------|2-----2---------|0-----0---------|
A| |-----------------|------------------|-----------------|------------------|
E| |-----------------|------------------|-----------------|------------------|












link: http://www.youtube.com/watch?v=VnwUGeFv6R0

como tocar hard as a rock.

Como tocar Smells like teen spirit










link: http://www.youtube.com/watch?v=U5phcdMRsQY

Tablaturas de Rock, Aprende a tocar guitarra facilmente




tablaturas de rock

Crazy Train : Ozzy Osbourne











link: http://www.youtube.com/watch?v=KzgQbtwdQsU












link: http://www.youtube.com/watch?v=tj7RGzsaAXA

Tablaturas de guitarra




aprender a tocar guitarra facilm


Fear Of The Dark : Iron Maiden










link: http://www.youtube.com/watch?v=GpPzgVe60oY












link: http://www.youtube.com/watch?v=eV6CN-_TdK0

aprender a tocar rock


como tocar starway to heaven

Stairway to Heaven : Led Zeppelin










link: http://www.youtube.com/watch?v=iUl0KmDUNgM












link: http://www.youtube.com/watch?v=JMu4naWotvU


como tocar cocain de clapton


como tocar smell like teen spiri




Knockin' On Heaven's Door - Guns N' Roses












link: http://www.youtube.com/watch?v=cN70tqIMo-U


como tocar hard as a rock.

Tablaturas de Rock, Aprende a tocar guitarra facilmente

Eric Clapton - "Cocaine"










link: http://www.youtube.com/watch?v=OXjVPQgawoo



tablaturas de rock

Tablaturas de guitarra


Acordes y Rasgueos Fáciles



aprender a tocar guitarra facilm



Mamut Chiquitito Mago de Oz
Este tema es bastante sencillo, sus acordes son: (Sol Mayor), (Mi menor) (La menor) Y (Re7)
su rasgueo es: dos veces hacia abajo y luego cambio de acorde.


aprender a tocar rock




Apuesta por el rock and roll de Enrique Bunbury

Los acordes que lleva son: Em (mi menor) G (Sol Mayor) D (Re Mayor) B (Si Mayor)
El rasgueo es: un bajo en la sexta cuerda ( osea tocan la sexta cuerda una vez), luego rasgueo hacia abajo, luego dos rasgueos hacia arriba, luego otra vez rasgueo hacia abajo Y cambio de acorde. Y asi es el rasgueo de toda la cancion..

como tocar starway to heaven



Ricardo Andrade El norte

Los acordes que lleva son: (Sol Mayor), (Mi menor), (Do Mayor), Y (Re mayor)
El rasgueo es : en los versos y el coro : dos veces hacia abajo, luego arriba abajo arriba, luego arriba abajo arriba, luego cambio de acorde..
Y en el puente solo un rasgueo hacia abajo y luego cambio de acorde.

como tocar cocain de clapton


Every Rose Has Its Thorn de Poison
Los acordes que lleva son: (Em mi menor) ( D re mayor) ( C do mayor) ( G Sol mayor)
Primer rasgueo y el que mas se usa en los versos : Rasgueo hacia abajo pausa, luego dos veces abajo, luego arriba abajo arriba, luego arriba abajo arriba y cambio de acorde...
Segundo Rasgueo: Rasgueo hacia abajo pausa, luego dos veces abajo y una hacia arriba..
Escuchen la cancion Y se van a dar cuenta de cuando usar cada uno de los rasgueos...


como tocar smell like teen spiri




Muelle de San Blas de Mana

Acordes que lleva: Em(mi menor), A(la mayor), D(re mayor), G(sol mayor)
Arpegio de los versos y el coro : para los acordes Em A Y D bajo en quinta cuerda (osea tocar la quinta cuerda), Para el acorde G bajo en sexta cuerda, luego el arpegio seria tercera,segunda tercera, primera, y despues tercera segunda tercera Y cambio de acorde..

Em A Y D = bajo,3-2-3,1,3-2-3
G=bajo,3-2-3,1,3-2-3










ESTO ES TODO POR AHORA SI TIENEN ALGUNA DUDA ESCRÍBANME Y LA SOLUCIONARE LO MAS PRONTO POSIBLE




como tocar hard as a rock.




Tablaturas de Rock, Aprende a tocar guitarra facilmente



tablaturas de rock

Tablaturas de guitarra