Tablaturas Y Acordes Para Guitarra Criolla

empecemos:

Tablaturas Y Acordes De Soda Estereo:

De Musica Ligera Acordes:

Intro:

Bm-G-D-A [x2]

Bm G D A [Bm-G-D-A]
Ella durmio, al calor de las brasas
Bm G D A [Bm-G-D-A]
Y yo desperté, queriendo soñarla
Bm G D A [Bm-G-D-A]
Algún tiempo atras, pensé en escribirle
Bm G D A [Bm-G-D-A]
Y nunca sortié, las trampas del amor

CORO:

Bm-G-D-A Bm-G-D-A
De aquel amor, de música ligera
Bm-G-D-A Bm-G-D-A
Nada nos libra, nada más queda


Bm G D A [Bm-G-D-A]
No le enviaré, cenizas de rosas
Bm G D A [Bm-G-D-A]
Ni pienso evitar, sus roces secretos


CORO:
Bm-G-D-A Bm-G-D-A
De aquel amor, de música ligera
Bm-G-D-A Bm-G-D-A Bm-G-D-A
Nada nos libra, nada más queda, nada más queda, nada más...

Solo......

CORO:
Bm-G-D-A Bm-G-D-A
De aquel amor, de música ligera
Bm-G-D-A Bm-G-D-A
Nada nos libra, nada más queda, nada más queda,
nada más queda, nada más queda, nada más queda,
[varias veces mismos acordes]

Tablaturas Y Acordes Para Guitarra Criolla

De Musica Ligera Tablaturas:

Mezclen Chorus Medio con un buen Delay
e|---------------------------------------------------5h7p5-----------7/12-----|
B|---7/12~-10~-12~-10~-12~--10--7~-5~-7~--------7----------7-55h7-5-----------|
G|----------------------------------------------------------------------------|
D|----------------------------------------------------------------------------|
A|----------------------------------------------------------------------------|
E|----------------------------------------------------------------------------|

e|---10-9-10-12-10-9--7-9-7-55h7-55h7-55h7---9/10-12-14-12-14-12-14-15--|
B|----------------------------------------------------------------------|
G|----------------------------------------------------------------------|
D|----------------------------------------------------------------------|
A|----------------------------------------------------------------------|
E|----------------------------------------------------------------------|

e|-14-12-12-14-14/15-14-12/10-12-10-9---9h10p9------|
B|------------------------------------12------10v---|
G|--------------------------------------------------|
D|--------------------------------------------------|
A|--------------------------------------------------|
E|--------------------------------------------------|

e|--9h10p9----9h10p9-----9h10p9-----9h10p9----9h10p9-------9h10-9v~-|
B|--------10v--------10v--------10v-------10v--------10v------------|
G|------------------------------------------------------------------|
D|------------------------------------------------------------------|
A|------------------------------------------------------------------|
E|------------------------------------------------------------------|

e|-10-12-10--12-14-12--14h15-14--15h17-15--17/(19)-19V~~~(Tremolo)---|
B|-------------------------------------------------------------------|
G|-------------------------------------------------------------------|
D|-------------------------------------------------------------------|
A|-------------------------------------------------------------------|
E|-------------------------------------------------------------------|

Tablaturas

En El Septimo Dia Tablaturas:

Intro: Fig.1 (x8)
E]-----------------------------------------
B]-----------------------------------------
G]-----------------------------------------
D]-4-4------4---4-4-------4---4-4-------4--
A]-2-2-0----0---2-2-0-----0---2-2-0-----0--
E]-------222--0-------222---0-------222----

Fig.2 (x3)

E]-----------------------
B]-----------------------
G]-----------------------
D]-7-7-7-7--6-6--4-4-4---
A]-5-5-5-5--4-4--2-2-2---
E]-----------------------

Fig.3 (x1)

E]-----------------------
B]-----------------------
G]-----------------------
D]-9--9--9-9--7-6-(4-)---
A]-7--7--7-7--5-4-(2-)---
E]-----------------------

Terminando la Fig.3 Comienza (Fig.1)

Fig.1
Odio este domingo híbrido de siempre
Fig.3 Fig.1
Me da igual, me da igual.
Fig.1
Es un beso en la pantalla del autocine
Fig.3 Fig.1
Sin gozar, sin gozar.

Fig.2
El ojo de la aguja
Fig.2
La punta de mi lengua
Fig.3 Fig.1
Es igual, es igual.

Fig.1
En el comienzo fue un big-bang y fue caliente
Fig.3 Fig.1
Revolver, revolver...

Fig.1
Sobre los titulos vi caer tu nombre
Fig.3 Fig.1
Reaccioné, reaccioné.

Fig.4 (Coro)
E D P.M G A G D G A E
E]-x--x--x-x--x-(0)--3----5----3----x----3----5----x
B]-9--9--9-9--7-(0)--3----5----3----7----3----5----9
G]-9--9--9-9--7-(0)--4----6----4----7----4----6----9
D]-9--9--9-9--7-(0)--5----7----5----7----5----7----9
A]-7--7--7-7--5-(0)--5----7----5----5----5----7----7
E]-x--x--x-x--x------3----5----3----x----3----5----x

Fig.4 E D G A G
Sólo Dios sabe qué es el séptimo dia
D G A E
El abismo y la luna en el séptimo dia
Fig.1(x4)despues empieza la Fig.5
No descansaré...

Fig.5

E]-5---5--4-5-4-5-------- Se repite muchas veces.
B]-5---5--4-5-4-5--------
G]-----------------------
D]-----------------------
A]-----------------------
E]-----------------------

Fig.5
En este tiempo anfibio temo perderte
Por volar, por volar.

Fig.3
El reino de los cielos
Fig.3
La llave del averno

Aqui comienza la Fig.4 pero mas larga
puse los acordes para que no se confundan.
E D G
Es iguial, es igual.
A G
En el séptimo dia
D G
El abismo y la luna
A G
En el séptimo dia
D G A G
Solo Dios sabe qué es el séptimo dia
D G A E (3 tiempos el E)
El abismo y la luna en el séptimo dia
Fig.1 (x15)
No descansaré...

guitarra

En El Septo Dia Acordes:
A
odio este domingo
híbrido de siempre
C A
me da igual, me da igual
A
Es un beso en la pantalla
del autocine
C A
sin gozar, sin gozar

D
El ojo de la aguja
la punta de mi lengua
C A
es igual, es igual igual
A
El comienzo fue un bing-bang
y fue caliente
C A
revolver, revolver
A
Sobre los titulos
vi caer tu nombre
C A
y reaccioné, reaccioné

C F
Solo dios sabe que
G F
es el septimo dia
C F
el abismo y la luna
G D
en el septimo dia
A
no descansare
A
En este tiempo anfibio
temo perderte
C A
por volar, por volar

D
El reino de los cielos
la llave del averno
C F
es igual, es igual

G F
En el septimo dia
C F
el abismo y la luna
G D
en el septimo dia
A
no descansare


Profugos Tablaturas:

E|?-2--|
B|?-2--|
G|?-4--|
D|?-4--|
A|?-4--|
E|?-2--|


E|----------------------------------------------| |----------------------------------------------|
B|----------------------------------------------| |----------------------------------------------|
G|----------------------------------------------| |--------------6?4--------------------6?4------|
D|--------------6?4--------------------6?4------| |-----5?4?2?4-------5?7-------5?4?2?4------5?7-|
A|-----5?4?2?4-------5?7-------5?4?2?4------5?7-| |--0----------------------0--------------------|
E|--0----------------------0--------------------|x2 |----------------------------------------------|x2


E|----|--5-|-5-|--------------|----12----12/14-|----------7-|-----------------------|-5-|-5-| |--------------------|| |-7---| |----|
B|-10-|--7-|-5-|-----------10-|-12----12-------|----------7-|--------10---10--8-7-5-|-7-|-5-| |--------------------|| |--7--| |-7--|
G|-0--|--7-|-7-|-----0--0--0--|----------------|----------7-|-----11----11----------|-7-|-7-| |-----------11-11----|| |---9-| |--9-|
D|-9--|--7-|-7-|-9---9--9--9--|----------------|-9-9-9-9--9-|---9-------------------|-7-|-7-| |-------9-9------9-9-|| |-----| |----|
A|-10-|--5-|-5-|-10--10-10-10-|----------------|-9-9-9-9--9-|-10--------------------|-5-|-5-| |-10-10--------------|| |-----| |----|
E|----|--5-|---|--------------|----------------|-7-7-7-7----|-----------------------|-5-|---| |--------------------||x2|-----|x3|----|


E|-----5--5-|------------------12---12/14----------7-|----------------------|-5-|-5-|-5-|-5-| |--------------------|| |-7---| |---|
B|-10--7--5-|-----------10--12---12----------------7-|--------10--10--8-7-5-|-7-|-5-|-8-|-7-| |--------------------|| |--7--| |7--|
G|-0---7--7-|-----0--0--0--------------------------7-|-----11---11----------|-7-|-7-|-7-|-7-| |-----------11-11----|| |---9-| |-9-|
D|-9---7--7-|-9---9--9--9-----------------9-9-9-9--9-|---9------------------|-7-|-7-|-7-|-7-| |-------9-9------9-9-|| |-----| |---|
A|-10--5--5-|-10--10-10-10----------------9-9-9-9--9-|-10-------------------|-5-|-5-|-5-|-5-| |-10-10--------------|| |-----| |---|
E|-----5----|-----------------------------7-7-7-7----|----------------------|-5-|---|-5-|---| |--------------------||x2|-----|x3 |---|


E|-5--5--5-5-|-5--5--5-5-|-7--7--7-7-|-7--7--7-7-|-5--5--5-5-|-5--5--5-5-|-7--7--7-7-|-7--7----| |---------|| ||-------||
B|-7--7--7-7-|-5--5--5-5-|-8--8--8-8-|-7--7--7-7-|-7--7--7-7-|-5--5--5-5-|-8--8--8-8-|-8--8----| |-7----7--|| ||-7---7-||
G|-7--7--7-7-|-5--5--5-5-|-9--9--9-9-|-7--7--7-7-|-7--7--7-7-|-5--5--5-5-|-9--9--9-9-|-7--9--4/| |--9--9-9-|| ||--9-9-9||
D|-7--7--7-7-|-7--7--7-7-|-9--9--9-9-|-9--9--9-9-|-7--7--7-7-|-7--7--7-7-|-9--9--9-9-|-9--10---| |---9-----|| ||---7---||
A|-5--5------|-7--7------|-7--7------|-9--9------|-5--5------|-7--7------|-7--7------|-10------| |---------|| ||-------||
E|-----------|-----------|-----------|-----------|-----------|-----------|-----------|---------| |---------||x2 ||-------||x2


E|---------|| ||-------|| |---------|| ||-------|-------|
B|-7----7--|| ||-7---7-|| |-7----7--|| ||-7---7-|-7-----|
G|--9--9-9-|| ||--9-9-9|| |--9--9-9-|| ||--9-9-9|-------|
D|---9-----|| ||---7---|| |---9-----|| ||---7---|-------|
A|---------|| ||-------|| |---------|| ||-------|-------|
E|---------||x2 ||-------||x2 |---------||x2 ||-------|-------|


E|---------------------|-------------------------------10-8-------------|-------------------------------------6-6-6--7-7-8-|
B|--------11~/20~--20-|-----------------------------8------11-10-------|-------------------------------------3-3-3--4-4-5-|
G|--9~----10~/19~------|-0-0p3-0---0--3p0-3p0------0---7---------10-----|--0-3p2p0h2p-0-------------0h2h3h4h--3-3-3--4-4-5-|
D|---------------------|---------0-------------3~--0---------------10~--|---------------3p2p0h2h3--------------------------|
A|--7~-----------------|------------------------------------------------|--------------------------------------------------|
E|-----3---------------|------------------------------------------------|--------------------------------------------------|


E|-5--|-5--5--5-5-|-7--7--7-7-|-7--7--7-7-|-5--5--5-5-|-5--5--5-5-|-7--7--7-7-|-7--7--7--7---7--7-----|
B|-7--|-5--5--5-5-|-8--8--8-8-|-7--7--7-7-|-7--7--7-7-|-5--5--5-5-|-8--8--8-8-|-8--8--8--8---8--8-----|
G|-7--|-5--5--5-5-|-9--9--9-9-|-7--7--7-7-|-7--7--7-7-|-5--5--5-5-|-9--9--9-9-|-7--7--7--7---7--7-----|
D|-7--|-7--7--7-7-|-9--9--9-9-|-9--9--9-9-|-7--7--7-7-|-7--7--7-7-|-9--9--9-9-|-9--9--9--9---9--9-----|
A|-5--|-7--7------|-7--7------|-9--9------|-5--5------|-7--7------|-7--7------|-10-10-10-10--10-10----|
E|----|-----------|-----------|-----------|-----------|-----------|-----------|-----------------------|

E|-5--5--5-5-|-5--5--5-5-|-7--7--7-7-|-7--7--7-7-|-5--5--5-5-|-5--5--5-5-|-7--7--7-7-|-7--7--7--7---7--7-----|
B|-7--7--7-7-|-5--5--5-5-|-8--8--8-8-|-7--7--7-7-|-7--7--7-7-|-5--5--5-5-|-8--8--8-8-|-8--8--8--8---8--8-----|
G|-7--7--7-7-|-5--5--5-5-|-9--9--9-9-|-7--7--7-7-|-7--7--7-7-|-5--5--5-5-|-9--9--9-9-|-7--7--7--7---7--7-----|
D|-7--7--7-7-|-7--7--7-7-|-9--9--9-9-|-9--9--9-9-|-7--7--7-7-|-7--7--7-7-|-9--9--9-9-|-9--9--9--9---9--9-----|
A|-5--5------|-7--7------|-7--7------|-9--9------|-5--5------|-7--7------|-7--7------|-10-10-10-10--10-10----|
E|-----------|-----------|-----------|-----------|-----------|-----------|-----------|-----------------------|

E|-5--5--5-5-|-5--5--5-5-|-7--7--7-7-|-7--7--7-7-|-5--5--5-5-|-5--5--5-5-|-7--|-7--7--7--7---7--7--7--7--7---|
B|-7--7--7-7-|-5--5--5-5-|-8--8--8-8-|-7--7--7-7-|-7--7--7-7-|-5--5--5-5-|-8--|-7--8--7--8---7--8--7--8--7---|
G|-7--7--7-7-|-5--5--5-5-|-9--9--9-9-|-7--7--7-7-|-7--7--7-7-|-5--5--5-5-|-9--|-7--9--7--9---7--9--7--9--7---|
D|-7--7--7-7-|-7--7--7-7-|-9--9--9-9-|-9--9--9-9-|-7--7--7-7-|-7--7--7-7-|-9--|-9--10-9--10--9--10-9--10-9---|
A|-5--5------|-7--7------|-7--7------|-9--9------|-5--5------|-7--7------|-7--|-10----10-----10----10----10--|
E|-----------|-----------|-----------|-----------|-----------|-----------|----|------------------------------|

acordes

Profugos Acordes:

INTRO [ E A ] G

D Em
Somos complices los dos
Bm G
al menos se que huyo porque amo
D Em
necesito distinción
F#m [ E A ] G
estar asi despierto es un delirio de condenados


D Em
Como un efecto residual
Bm G
yo siempre tomare el desviro
D Em
tus ojos nunca mentiran
F#m D
pero ese ruido blanco es una alarma en mis oidos


Am Em
No seas tan cruel
Bm D
no busques más pretextos
Am Em
no seas tan cruel
G C Em F#m D Bm [ E A ] G
siempre seremos profugos los dos


D Em
No tenemos donde ir
Bm G
somos como un area desvastada
D Em
carreteras sin sentido
F#m
religiones sin motivo, como podremos sobrevivir


D Am Em
No seas tan cruel
Bm D
no busques más pretextos
Am Em
no seas tan cruel
G
siempre seremos
C Em F#m D Bm [ E A ]
siempre seremos profugos los dos


SOLO [ G ] [ E A ]


D Am Em
Ven, no seas tan cruel
Bm D
no busques más pretextos
Am Em
no seas tan cruel
G D Am Em Bm D Am Em
siempre seremos profugos... ooh

G D Am Em Bm D Am Em G
siempre seremos profugos...

Em D C G
siempre seremos...

para


Tablaturas Y Acordes de Juanes:

La Camisa Negra Tablatura:

INTRO

GTR 1;ESTO VA CASI TODA LA CANCION

a------2------
f------3------
c------4------
g--x---4------
d--x---2------
A--x---2------

GTR 2

a----------l----------l----------l
f----------l----------l----------l
c----------l----------l----------l
g--4/7-7---l--4/7-7---l--4/7-7---l
d----------l----------l----------l
A----------l----------l----------l

a----------l----------l----------l
f----------l----------l----------l
c----------l----------l----------l
g--6/9-9---l--6/9-9---l--6/9-9---l
d----------l----------l----------l
A----------l----------l----------l

a------------l------------l-------------l--------l
f------------l------------l-------------l--------l
c------------l------------l-------------l--------l
g--8/11-11---l--8/11-11---l--8/-11-11---l--5-5---l
d------------l------------l-------------l--------l
A------------l------------l-------------l--------l

a------------------l
f------------------l
c--6-7-6-4-3-------l
g------------6-4---l
d------------------l
A------------------l

a----------------l------------l------------l----------l
f----------------l------------l------------l----------l
c----------6-----l------6-----l------6-----l----------l
g--7-7-4-7---7---l--4-7---7---l--4-7---7---l--4-7-4---l
d----------------l------------l------------l----------l
A----------------l------------l------------l----------l

a------------------l------------l------------l----------l
f------------------l------------l------------l----------l
c-------------8----l------8-----l------8-----l----------l
g--6-9-9--6-9---9--l--6-9---9---l--6-9---9---l--6-9-6---l
d------------------l------------l------------l----------l
A------------------l------------l------------l----------l

a-------------------l------------l------------l----------l
f-------------------l------------l------------l----------l
c-------------6-----l------6-----l------6-----l----------l
g--4-7-7--4-7---7---l--4-7---7---l--4-7---7---l--4-7-4---l
d-------------------l------------l------------l----------l
A-------------------l------------l------------l----------l

a-----------------------l------------------l------------------l
f-----------------------l--6-2---2---------l--6-2---2---------l
c---4-4-6-7-6-4-3-------l------4---4---4---l------4---4---4---l
g-----------------6-4---l------------4-----l------------4-----l
d-----------------------l------------------l------------------l
A-----------------------l------------------l------------------l

TENGO LE CAMISA NEGRA
HOY MI AMOR ESTA DE LUTO

HOY TENGO EN EL ALMA UNA PENA
Y ES POR CULPA DE TU EMBRUJO

HOY SE QUE TU YA NO ME QUIERES
Y ESO ES LO QUE MAS ME HIERE
QUE TENGO LA CAMISA NEGRA
Y UNA PENA QUE ME DUELE

CORO

MAL PARECE QUE SOLO ME QUEDE
Y FUE PURA TODITA TU MENTIRA
QUE MALDITA MALA SUERTE LE MIA
QUE AQUEL DIA TE ENCONTRE


a------------------l----------------l
f------5-7-9-7-5---l------5---5-----l
c----5-------------l----5---5-------l
g--5---------------l--5---------5---l X3
d------------------l----------------l
A------------------l----------------l

POR BEBER DEL VENENO MALEVO DE TU AMOR

YO QUEDE MOROBUNDO Y LLENO DE DOLOR

RESPIRE DE ESE HUMO AMARGO DE TU ADIOS

a---------------------l----------l
f--------5--7-9-7-5---l----------l
c------5--------------l----5-5---l
g--5-5----------------l--5-------l
d---------------------l----------l
A---------------------l----------l

Tablaturas Y Acordes Para Guitarra Criolla

La Camisa Negra Acordes:

INTRO: F#m Bm

ESTROFA:
F#m Bm
Tengo la camisa negra
F#m
hoy mi amor está de luto
Bm
hoy tengo en el alma una pena
C# F#m
y es por culpa de tu embrujo

Hoy sé que tu ya no me quieres
y eso es lo que mas me hiere
que tengo la camisa negra
y una pena que me duele

mal parece que solo me quede
y jue pura todita tu mentira
que maldita mala suerte la mia
C# F#
que aquel dia te encontré

PUENTE:
F# C# F#
Por beber del veneno
B F#
malevolo de tu amor
C# F#
yo quede moribundo
B F#
y lleno de dolor
C# F#
respiré de ese humo
B F#
amargo de tu adios
C# F# B
y desde que tu te fuiste yo solo...


Tengo, tengo la camisa negra
Porque negra tengo el alma
Yo por ti perdí la calma
Y casi pierdo hasta mi cama
cama cmon cmon baby
te digo con disimulo
que tengo la camisa negra
y debajo tengo el difunto


Tengo la camisa negra
ya tu amor no me interesa
lo que ayer me supo a gloria
hoy me sabe a pura
miercoles por la tarde
y tu que no llegas
nisiquiera muestras señas
y yo con la camisa negra
y tus maletas en la puerta


Mal parece...

Por beber del veneno ...

Tengo, tengo la camisa negra... [2 V.]

Se que no es mucho y que no esta perfecto el post pero espero que les haya servido

11 comentarios - Tablaturas Y Acordes Para Guitarra Criolla

@betocapo19 +2
Zacinto dijo:Que sos nfu?

Lo decis en forma ironica???porque la verdad ni eso podes hacer
@Zacinto -3
betocapo19 dijo:
Zacinto dijo:Que sos nfu?

Lo decis en forma ironica???porque la verdad ni eso podes hacer

No te preocupes, estoy desde ya tomando un curso en el centro comunitario: sarcasmo basico
@betocapo19
Che tibu podrias poner unas barras separadoras entre cancion y cancion porque no se entiende mucho a simple vista
@negro127
Esta bueno tu post , pero viste , ponele color o trata de arreglar porque no se entiende muy bien che .
@pokeorne
che le re pifiaste a la letra de soda stereo . Soda Stereo no estereo pedazo de boludo sin cerebro
@pepote555
loco, media pila, si vas a hacer algo, que se entienda por lo menos, para eso no lo hagas