algunas cosas para tocar canciones con guitarra



notas

guitarras

canciones


notas
COMO APRENDER LEER TABLATURAS DE GUITARRA

Las tablaturas para guitarra son como una partitura que muestra la posición de los dedos en la guitarra, pero que no da datos de tonos ni duración de las notas. Asi que para tocar una canción a traves de una tablatura, la debes haber escuchado antes para conocer el ritmo y sonido de la guitarra.

Tambien te puede interesar:
Como afinar una guitarra
Tocar escalas de guitarra


En primer lugar, nos interesa saber el nombre de las partes que componen el mastil de la guitarra:

TRASTES: En el mástil se encuentran los trastes, que son las divisiones en que se divide.

CUERDAS: La guitarra tiene 6 cuerdas de distinto grosor, la más fina que esta abajo, es la denominada 1ª cuerda, la siguiente es la 2ª, y así hasta la 6ª que es la más gruesa.

Mastil de la guitarra
......---
Mi 1ra. ||---------|----------|----------|----------|---------|-
Si 2da. ||---------|----------|----------|----------|---------|-
Sol 3ra.||---------|----------|----------|----------|---------|-
Re 4ta. ||---------|----------|----------|----------|---------|-
La 5ta. ||---------|----------|----------|----------|---------|-
Mi 6ta. ||---------|----------|----------|----------|---------|-
......___/1 Traste . 2 Traste . 3 Traste . 4 Traste . 5 Traste





La tablatura se compone de seis líneas horizontales que representan las seis cuerdas de la guitarra, la línea de arriba es la 1ª cuerda y la última línea es la 6ª:

e------------------------------primera cuerda
B-----------------------------segunda cuerda
G-----------------------------tercera cuerda
D-----------------------------cuarta cuerda
A-----------------------------quinta cuerda
E-----------------------------sexta cuerda



En estas líneas estaran unos números que muestran el traste que se tiene que pulsar:

e----1-------------------------
B------------------------------
G-------3----------------------
D----------5-------------------
A------------------------------
E------------------------------

Esto quiere decir que debes comenzar el punteo de guitarra pulsando la cuerda primera(e) en el traste 1, después sigue la cuerda tercera(G) en el traste 3, después sigues la cuerda cuarta(D) en el traste 5.
Si encuentras un 0 en la tablatura te esta indicando que la cuerda hay que tocarla sin pulsarla.



Cuando en la tablatura hay unos números sobre otros, los tienes que tocar al mismo tiempo y cada uno en su traste. Esto se llamaria acorde y se define como: dos o más notas sonando al mismo tiempo.

e--2---------------------------primera cuerda
B--3---------------------------segunda cuerda
G------------------------------tercera cuerda
D------------------------------cuarta cuerda
A------------------------------quinta cuerda
E------------------------------sexta cuerda

En la tablatura de arriba hay dos notas una encima de otra, sin dejar espacio. Esto indica que hay que tocarlas a la vez. La primera cuerda de la guitarra pisada en el traste 2 y la segunda cuerda pisada en el traste 3, presionas las dos cuerdas a la vez en sus trastes correspondientes y las tocas al mismo tiempo.




Acordes para guitarra puestos en tablatura
Ahora os mostramos algunos acordes basicos de guitarra puestos en tablatura:

Visita tambien: Acordes de guitarra

|----------------------------------------------------------------------|
|--------------------------------------------------------------3-------|
|------9--------10--------------------2---3---4---5---6---7----2---8---|
|-2----9---3----10---4---5---6---7----2---3---4---5---6---7-ó--0---8---|
|-2-or-7---3-ó---8---4---5---6---7-ó--0---1---2---3---4---5--------6---|
|-0--------1---------2---3---4---5-------------------------------------|



|-0---1---3---0---2---3---1-|
|-0---1---3---1---3---4---3-|
|-0---1---3---2---4---5---2-|
|-2---3---0---2---4---5---0-|
|-2---3-------0-------------|
|-0---1---------------------|


Estos simbolos suelen estar escritos en inglés:

) = Bend

/ = Slide

~~ = Vibrato

h = Hammer on

p = Pulloff

PM = Palm mute

xx = Pick scrape (rasgar con la pua)

NH = Armonico natural (Natural armonic)

+ = Tremelo Pick

) = Unison Bend

| = Ghost Bend (Bend fantasma)

| = Ghost Bend and release (Bend fantasma y soltar)

* = Retroalimentacion descontrolada (Uncontrolled feedback)


A continuacion os explicamos que hay que hacer en algunas de las tecnicas mas comunes:


BEND:

Se toca la primera nota y luego se estira la cuerda de la guitarra con el dedo que presiona el mástil hasta alcanzar un medio tono, tono completo o segun se indique.

E-|------------------|
B-|----5)------------|
G-|------------------|
D-|------------------|
A-|------------------|
E-|------------------|



HARMONICO NATURAL:

Se toca la cuerda ligeramente sin llegar a presionar con la mano que toca el mástil en el traste que se indique y despues pulsa en el trate la nota.



HARMONICO ARTIFICIAL (PINCH):

Despues de que la nota es tocada normalmente, se toca ligeramente con la punta de el dedo de la mano que hace el pick , sin llegar a apagar el sonido de la nota (una octava más arriba de la nota tocada originalmente) para producir el sonido de un harmónico. (pinch) A.H.
E-|----9-------------|
B-|------------------|
G-|------------------|
D-|------------------|
A-|------------------|
E-|------------------|



PALM MUTE:

La nota es ligeramente apagada con el filo de la mano que hace el pick mientras esta esta tocando las notas.
E-|------------------|
B-|------------------|
G-|------------------|
D-|------------------|
A-|------------------|
E-|--0--0--0--0-----|



SLIDE:

Se toca la nota primera nota y se corre el dedo hasta un trasto más arriba o más abajo segun sea el caso.La segunda nota no es tocada con la mano que hace el pick.
E-|------------------|
B-|----5/8-----------|
G-|------------------|
D-|------------------|
A-|------------------|
E-|------------------|





SLIDE PICK:

Es lo mismo que el slide solo que la segunda nota si es tocada.
E-|------------------|
B-|----5/8-----------|
G-|------------------|
D-|------------------|
A-|------------------|
E-|------------------|



SLIDE LARGO:

Se hace el pick durante el slide hasta alcanzar la nota deseada>
E-|------------------|
B-|----/5------------|
G-|------------------|
D-|------------------|
A-|------------------|
E-|------------------|



SLIDE OFF:

Es el slide largo solo que hacia abajo.
E-|------------------|
B-|----5/----5------|
G-|------------------|
D-|------------------|
A-|------------------|
E-|------------------|




PICK SLIDE:

Con el filo de el pick (pua) se presiona sobre los trastos y se hace el slide.
E-|------------------|
B-|----x------------|
G-|------------------|
D-|------------------|
A-|------------------|
E-|------------------|




HAMMER-ON:

Se toca la primera nota y la segunda se hace sonar por medio de un tap (presionar el trasto de la guitarra y lograr un sonido sin necesidad de hacer un punteo) la segunda nota.

E-|------------------|
B-|----5h7----------|
G-|------------------|
D-|------------------|
A-|------------------|
E-|------------------|



PULL-OFF:

Se colocan los dos dedos en las notas que se van a tocar, se toca la primera nota y se deja de presionar esta para dejar sonar la nota de más abajo. La segunda nota no es tocada con la mano que hace el pick (punteo).
E-|------------------|
B-|----7p5-----------|
G-|------------------|
D-|------------------|
A-|------------------|
E-|------------------|




TREMOLO PICKING:

La nota es tocada con la mano que hace el pick hacia arriba y hacia abajo lo más rápido que sea posible.
E-|------------------|
B-|----5-------------|
G-|----/-------------|
D-|----/-------------|
A-|----/-------------|
E-|------------------|




VIBRATO:

Se toca la nota y se hace vibrar con el vibrato o palanca de la guitarra, o bien haciendo un bend lo más rápido posible hacia arriba y hacia abajo.
E-|------------------|
B-|----5~-----------|
G-|------------------|
D-|------------------|
A-|------------------|
E-|------------------|

tablas
las partes de una guitarra

algunas cosas para tocar canciones con guitarra


guitarras
bueno y por ultimo les dejo una pagina paraque aprendan algunas musicas



http://www.youtube.com/view_play_list?p=560A50E1E4FAD92E

canciones