ESCALAS BASICAS DE BLUES


Esta la primera leccion sobre escalas básicas de blues para introducirte en el maravilloso mundo del Blues. Creo que una de las primeras cosas que un bluesman debe saber son las escalas básicas (basadas muchas de ellas en la escala pentatonica). Estas escalas son básicas para muchas de las canciones de blues y recomiendo que practiques con ellas hasta que puedas tocarlas perfectamente.

Estas escalas estan en tabulado por lo que la linea discontinua superior es la sexta cuerda y la inferior es la primera, los numero son los trastes de esas cuerdas que debes tocar. Las notas CDEFGAB corresponden a DO, RE, MI, FA, SOL, LA y SI.

1.- Escala basica en A (Pentatonica)

-------------------------------------------------------------------8------5-----
------------------------------------------------------7-----5-------------------
-----------------------------------------7-----5--------------------------------
-----------------------------7-----5--------------------------------------------
----------------8------5--------------------------------------------------------
---8-----5----------------------------------------------------------------------
2.- Escala Blues en A

---------------------------------------------------------------------8-----5----
------------------------------------------------------7---6---5----------------
--------------------------------------------7----5------------------------------
---------------------------8----7----5-----------------------------------------
---------------8-----5----------------------------------------------------------
---8-----5----------------------------------------------------------------------

Como puedes ver esta segunda escala es como la de arriba pero en esta aparecen unas notas que cambian el "sonido" de la escala; estas notas son las llamadas "notas blues" que dan ese toque especial a la escala (las notas especiales son el 8 en la tercera cuerda y el 6 en la quinta cuerda).

Con solo añadir dos notas la escala es muy diferente ganando cuerpo y fuerza.

3.- Escala Blues en A (Afinación en G)

Para poder tocar bien esta escala debes de afinar tu guitarra a G, para ello utiliza un afinador, un diapason o la ayuda de cualquier amigo para poder afinar tu guitarra.

------------------------------------------------------------------------------10-----7------
-------------------------------------------------------------9----8----7--------------------
-------------------------------------------10----7----5------------------------------------
--------------------------9----8----7-------------------------------------------------------
--------------10----8-----------------------------------------------------------------------
-------10------------------------------------------------------------------------------------

Es muy importante una correcta afinación en G de la guitarra ya que sino esta escala sonara realmente mal.

4.- Escala Blues en A (Afinación en D)

Esta escala sigue con la tonica de la anterior, una afinación especial, para este caso tienes que afinar la guitarra en D, para ello ya sabes; afinador, diapasón o la ayuda de un amigo.

-----------------------------------------------------------------------7--------
------------------------------------------------7----6----5----3--------------
-------------------------------------7----5------------------------------------
--------------------------------6-----------------------------------------------
----------------7----6----5---------------------------------------------------
-----7----5--------------------------------------------------------------------

Lo mismo que antes: aunque tardes mas, afina la guitarra correctamente ya que sino la escala perdera su verdadero sonido.

Ahora vamos a ver 5 patrones diferentes de la escala pentatónica blues en A menor con los cuales seras capaz de moverte por casi todo el mastil de tu guitarra sin tocar ninguna nota equivocada; disfruta!!

5.- Patrón

-------------------------------------------------------------------------3----0-----
-------------------------------------------------------------3----0-----------------
--------------------------------------------2----1----0----------------------------
---------------------------------2----0---------------------------------------------
-----------------4----3----1-------------------------------------------------------
------3----0------------------------------------------------------------------------

6.- Patrón

---------------------------------------------------------------------------5----3-----
-------------------------------------------------------------6---5---3---------------
--------------------------------------------5----2----1------------------------------
---------------------------------5----2-----------------------------------------------
------------------5---4---3----------------------------------------------------------
-------5----3-------------------------------------------------------------------------

7.- Patrón

----------------------------------------------------------------------------8-----5----
-----------------------------------------------------------7----6----5----------------
-------------------------------------------------7----5--------------------------------
--------------------------------8----7----5-------------------------------------------
-----------------8----5---4-----------------------------------------------------------
-------8----5--------------------------------------------------------------------------

8.- Patrón

-----------------------------------------------------------------------------11---10---8----
------------------------------------------------------------10---7---6-----------------------
-------------------------------------------------10----7-------------------------------------
-----------------------------------9---8---7-------------------------------------------------
-----------------------10----8---------------------------------------------------------------
-----11---10----8---------------------------------------------------------------------------

9.- Patrón

--------------------------------------------------------------------------------------12---11---10---
--------------------------------------------------------------------------12---10---------------------
-------------------------------------------------------13---12---10----------------------------------
-------------------------------------12----9----8-----------------------------------------------------
------------------------13----10----------------------------------------------------------------------
-----12---11---10------------------------------------------------------------------------------------

Estas escalas siguen siendo bastante fáciles de tocar pero en los patrones 8 y 9 observamos como aparecen ya trastes altos (10,11,12, y 13); si te ha costado trabajo tocar bien estos patrones te recomiendo que los practiques todo lo que puedas porque no quiero deprimirte... pero las melodias blues más bellas (por lo menos en mi punto de vista) se tocan en trastes altos de la guitarra (llegando hasta el 20, 21...).

10.- Patrón

-------------------------------------------------------------------------------3--------------------
-----------------------------------------------------------------3-----1---------------------------
---------------------------------------------------3-----0-----------------------------------------
---------------------------------------3-----0-----------------------------------------------------
----------------------3----2----1-----------------------------------------------------------------
--------3------1-----------------------------------------------------------------------------------



11.- Patrón

-----------------------------------------------------------------------------------3-----0-----------
---------------------------------------------------------------------2-----0-------------------------
-------------------------------------------------------2-----0---------------------------------------
------------------------------2-----0-----2-----0---------------------------------------------------
--------------------3----0---------------------------------------------------------------------------
--------3-----0--------------------------------------------------------------------------------------

Este patrón es una variación del anterior con la característica de que he añadido en la tercera cuerda una repeticion (2-0-2-0) para darle mas cuerpo a la escala. Esto es una practica comun y sirve para alargar la escala todo lo que uno quiera, saca tu mismo repeticiones de este tipo para dar mas cuerpo a estas escalas.

12.- Patrón

--------3----5------------------------------------------------------------------------------------
-------------------3---5---7---------------------------------------------------------------------
---------------------------------5----7-----------------------------------------------------------
-------------------------------------------5----7---9--------------------------------------------
----------------------------------------------------------8----10---------------------------------
----------------------------------------------------------------------8----10----12-------------



Esta escala brinda muchas posibilidades ya que al recorrerte el mastil de arriba a abajo te permite una vez acabada la escala volver a tocarla pero empezando desde el traste mas alto (12) hasta el mas bajo (3). Esta escala puedes empezarla en el traste que quieras pero tienes que seguir el orden de las notas siempre.



13.- Patrón

--5---7----------------------------------------------------------------------------------------------
----------5---7---9------9--------------------------------------------------------------------------
-----------------------7------7----9-----------------------------------------------------------------
------------------------------------------7----9----11-------11------------------------------------
-----------------------------------------------------------10------10----12------------------------
---------------------------------------------------------------------------------10---12---14------

Como veras esta escala es una variacion de la anterior, se ha empezado en el traste 5 en vez de en el 3 y la estructura es practicamente la misma, unicamente he introducido un par de cambios para que veas a que me referia con "dar juego a la escala". Este es un ejemplo pero a medida que vayas experimentando te saldran solos. Te recomiendo que aprendas bien este patron porque podras variarlo con los cambios que quieras y eso tiene un nombre basico e imprescindible en el Blues......Improvisación.



14.- Patrón

---------------------------------------------------------------------------6----3----3----6--------------------------------
-------------------------------------------------------------5---4---3------------------------3---4---5-------------------
-------------------------------5---3---5--------5----3----------------------------------------------------3---5--------5
------------------------- 3-----------------3-------------------------------------------------------------------------3-----
-----------3---2---1--------------------------------------------------------------------------------------------------------
--3--1--------------------------------------------------------------------------------------------------



Esta escala es una combinacion de alguna de las anteriores; es la mas larga de las escalas que has visto hasta el momento, pero te puede dar una idea de cómo combinar parte de escala para lograr que una vez acabada la puedas continuar en otro traste creando nuevas escalas y repeticiones a medida que tocas.



15.- Patrón
---------------------------------------------------------------------------------------------8---5---3---5--------
-----------------------------------------------------------------------------7----6----5--------------------------
-------------------------------------------------------7---------7----5-------------------------------------------
-------------------------7---5---7--------7----5---------5------------------------------------------------------
-----------8---7---5-----------------5---------------------------------------------------------------------------
--8--5-----------------------------------------------------------------------------------------



Esta escala, que por cierto, me acaba de salir ahora mismo resume prefectamente estas 3 lecciones, tienes que saber muy bien donde esta la siguiente nota a tocar, tener en mente tambien alguna de las escalas anteriores para saber donde estas y sobre todo tocarla con cierto ritmo (manteniendo aquellas notas que te suenen mejor y continuando con un cambio subito de velocidad hacia la siguiente nota con lo que conseguiras una buena escala).

Solos recomendados para sacar:

Led Zeppelin:
Stairway To Heaven
Rock N' Roll
Whole Lotta Love
Heartbreaker

Guns N' Roses:
Sweet Child O' Mine
November Rain
Mr Brownstone
Roquet Queen
Civil War

The Jimmy Hendrix Experiencie:
Voodoo Child
Hey Joe
Foxy Lady

Bueno, estas han sido las escalas basicas de Blues. Para obtener una buena velocidad, conviene practicar diariamente, pero no todas juntas, un dia las primeras 5 otro dia otras y asi, hasta que sus dedos se acostumbren al blues y poder tocar como los grandes maestros del Blues Rock como Jimmy Hendrix, Jimmy Page, Slash, Pappo, Chizzo, Santana y muchisimos mas.
Ser un buen guitarrista, no es tocar solos rapidos, sino la belleza de ellos, tampoco importa la marca de la guitarra o la forma, sino el sonido que el guitarrista le da.




Ma77ias


Parte 2:

http://www.taringa.net/posts/info/2627367/Egt;Egt;Escalas-De-BluesElt;Elt;-----Parte-2.html