El post que buscas se encuentra eliminado, pero este también te puede interesar

Lecciones de Blues!

Lecciones de Blues!


LECCION 1

ESCALAS BASICAS DE BLUES (PARTE 1)



Esta la primera leccion sobre escalas básicas de blues para introducirte en el maravilloso mundo del Blues. Creo que una de las primeras cosas que un bluesman debe saber son las escalas básicas (basadas muchas de ellas en la escala pentatonica). Estas escalas son básicas para muchas de las canciones de blues y recomiendo que practiques con ellas hasta que puedas tocarlas perfectamente.

Estas escalas estan en tabulado por lo que la linea discontinua superior es la sexta cuerda y la inferior es la primera, los numero son los trastes de esas cuerdas que debes tocar. Las notas CDEFGAB corresponden a DO, RE, MI, FA, SOL, LA y SI.

Ok, empezemos con la leccion.

1.- Escala basica en A (Pentatonica)

-------------------------------------------------------------------8------5-----
------------------------------------------------------7-----5-------------------
-----------------------------------------7-----5--------------------------------
-----------------------------7-----5--------------------------------------------
----------------8------5--------------------------------------------------------
---8-----5----------------------------------------------------------------------

Una escala facil ¿no?. Esta es una de las primeras escalas basicas, la siguiente es una variacion de esta.

2.- Escala Blues en A

---------------------------------------------------------------------8-----5----
------------------------------------------------------7---6---5----------------
--------------------------------------------7----5------------------------------
---------------------------8----7----5-----------------------------------------
---------------8-----5----------------------------------------------------------
---8-----5----------------------------------------------------------------------

Como puedes ver esta segunda escala es como la de arriba pero en esta aparecen unas notas que cambian el "sonido" de la escala; estas notas son las llamadas "notas blues" que dan ese toque especial a la escala (las notas especiales son el 8 en la tercera cuerda y el 6 en la quinta cuerda).

Con solo añadir dos notas la escala es muy diferente ganando cuerpo y fuerza.

3.- Escala Blues en A (Afinación en G)

Para poder tocar bien esta escala debes de afinar tu guitarra a G, para ello utiliza un afinador, un diapason o la ayuda de cualquier amigo para poder afinar tu guitarra.

------------------------------------------------------------------------------10-----7------
-------------------------------------------------------------9----8----7--------------------
-------------------------------------------10----7----5------------------------------------
--------------------------9----8----7-------------------------------------------------------
--------------10----8-----------------------------------------------------------------------
-------10------------------------------------------------------------------------------------

Es muy importante una correcta afinación en G de la guitarra ya que sino esta escala sonara realmente mal.

4.- Escala Blues en A (Afinación en D)

Esta escala sigue con la tonica de la anterior, una afinación especial, para este caso tienes que afinar la guitarra en D, para ello ya sabes; afinador, diapasón o la ayuda de un amigo.

-----------------------------------------------------------------------7--------
------------------------------------------------7----6----5----3--------------
-------------------------------------7----5------------------------------------
--------------------------------6-----------------------------------------------
----------------7----6----5---------------------------------------------------
-----7----5--------------------------------------------------------------------

Lo mismo que antes: aunque tardes mas, afina la guitarra correctamente ya que sino la escala perdera su verdadero sonido.

Ok, creo que ya tienes unos conceptos básicos de las escalas blues (algunos ejemplos), ahora practica con ellos para tocar las escalas cada vez mas rapido; en la siguiente lección te mostrare mas escalas básicas de blues.


LECCION 2
ESCALAS BASICAS DE BLUES (PARTE 2)



Bienvenidos de nuevo!!, si habeis practicado con la primera lección habreís visto que las escalas no eran dificiles (bueno, quizas un poco engorroso el tema de la afinación, pero os aseguro que merece la pena). Antes de empezar con esta lección debo decir que todas las escalas de la primera lección eran escalas MENORES (escalas menores pentatónicas).

Ahora vamos a ver 5 patrones diferentes de la escala pentatónica blues en A menor con los cuales seras capaz de moverte por casi todo el mastil de tu guitarra sin tocar ninguna nota equivocada; disfruta!!

5.- Patrón

-------------------------------------------------------------------------3----0-----
-------------------------------------------------------------3----0-----------------
--------------------------------------------2----1----0----------------------------
---------------------------------2----0---------------------------------------------
-----------------4----3----1-------------------------------------------------------
------3----0------------------------------------------------------------------------

6.- Patrón

---------------------------------------------------------------------------5----3-----
-------------------------------------------------------------6---5---3---------------
--------------------------------------------5----2----1------------------------------
---------------------------------5----2-----------------------------------------------
------------------5---4---3----------------------------------------------------------
-------5----3-------------------------------------------------------------------------

7.- Patrón

----------------------------------------------------------------------------8-----5----
-----------------------------------------------------------7----6----5----------------
-------------------------------------------------7----5--------------------------------
--------------------------------8----7----5-------------------------------------------
-----------------8----5---4-----------------------------------------------------------
-------8----5--------------------------------------------------------------------------

8.- Patrón

-----------------------------------------------------------------------------11---10---8----
------------------------------------------------------------10---7---6-----------------------
-------------------------------------------------10----7-------------------------------------
-----------------------------------9---8---7-------------------------------------------------
-----------------------10----8---------------------------------------------------------------
-----11---10----8---------------------------------------------------------------------------

9.- Patrón

--------------------------------------------------------------------------------------12---11---10---
--------------------------------------------------------------------------12---10---------------------
-------------------------------------------------------13---12---10----------------------------------
-------------------------------------12----9----8-----------------------------------------------------
------------------------13----10----------------------------------------------------------------------
-----12---11---10------------------------------------------------------------------------------------

Estas escalas siguen siendo bastante fáciles de tocar pero en los patrones 8 y 9 observamos como aparecen ya trastes altos (10,11,12, y 13); si te ha costado trabajo tocar bien estos patrones te recomiendo que los practiques todo lo que puedas porque no quiero deprimirte... pero las melodias blues más bellas (por lo menos en mi punto de vista) se tocan en trastes altos de la guitarra (llegando hasta el 20, 21...).

No obstante si has llegado hasta aquí significa que por lo menos ya conoces 9 escalas básicas de Blues, te animo a que sigas practicando dia a dia.

En la siguiente lección te mostrare escalas blues de nivel medio, con estas escalas podrás tener acceso a más canciones blues y tu repertorio aumentará (favoreciendo enormemente la improvisación en tus solos) pero es muy importante, antes de que saltes a las siguientes lecciones, que tengas casi memoriozadas las 9 escalas y que seas capaz de tocarlas rapido.


LECCION 3

ESCALAS BASICAS DE BLUES (PARTE 2)



Bienvenidos de nuevo!!, si habeis practicado con la primera lección habreís visto que las escalas no eran dificiles (bueno, quizas un poco engorroso el tema de la afinación, pero os aseguro que merece la pena). Antes de empezar con esta lección debo decir que todas las escalas de la primera lección eran escalas MENORES (escalas menores pentatónicas).

Ahora vamos a ver 5 patrones diferentes de la escala pentatónica blues en A menor con los cuales seras capaz de moverte por casi todo el mastil de tu guitarra sin tocar ninguna nota equivocada; disfruta!!

5.- Patrón

-------------------------------------------------------------------------3----0-----
-------------------------------------------------------------3----0-----------------
--------------------------------------------2----1----0----------------------------
---------------------------------2----0---------------------------------------------
-----------------4----3----1-------------------------------------------------------
------3----0------------------------------------------------------------------------

6.- Patrón

---------------------------------------------------------------------------5----3-----
-------------------------------------------------------------6---5---3---------------
--------------------------------------------5----2----1------------------------------
---------------------------------5----2-----------------------------------------------
------------------5---4---3----------------------------------------------------------
-------5----3-------------------------------------------------------------------------

7.- Patrón

----------------------------------------------------------------------------8-----5----
-----------------------------------------------------------7----6----5----------------
-------------------------------------------------7----5--------------------------------
--------------------------------8----7----5-------------------------------------------
-----------------8----5---4-----------------------------------------------------------
-------8----5--------------------------------------------------------------------------

8.- Patrón

-----------------------------------------------------------------------------11---10---8----
------------------------------------------------------------10---7---6-----------------------
-------------------------------------------------10----7-------------------------------------
-----------------------------------9---8---7-------------------------------------------------
-----------------------10----8---------------------------------------------------------------
-----11---10----8---------------------------------------------------------------------------

9.- Patrón

--------------------------------------------------------------------------------------12---11---10---
--------------------------------------------------------------------------12---10---------------------
-------------------------------------------------------13---12---10----------------------------------
-------------------------------------12----9----8-----------------------------------------------------
------------------------13----10----------------------------------------------------------------------
-----12---11---10------------------------------------------------------------------------------------

Estas escalas siguen siendo bastante fáciles de tocar pero en los patrones 8 y 9 observamos como aparecen ya trastes altos (10,11,12, y 13); si te ha costado trabajo tocar bien estos patrones te recomiendo que los practiques todo lo que puedas porque no quiero deprimirte... pero las melodias blues más bellas (por lo menos en mi punto de vista) se tocan en trastes altos de la guitarra (llegando hasta el 20, 21...).

No obstante si has llegado hasta aquí significa que por lo menos ya conoces 9 escalas básicas de Blues, te animo a que sigas practicando dia a dia.

En la siguiente lección te mostrare escalas blues de nivel medio, con estas escalas podrás tener acceso a más canciones blues y tu repertorio aumentará (favoreciendo enormemente la improvisación en tus solos) pero es muy importante, antes de que saltes a las siguientes lecciones, que tengas casi memoriozadas las 9 escalas y que seas capaz de tocarlas rapido.


LECCION 4

ESCALAS AVANZADAS DE BLUES (PARTE 1)



Ok, una vez que hayas leido y practicado con las escalas básicas es hora de entrar en escalas mas avanzadas que requieren un poco más de práctica pero te aseguro que el esfuerzo merece más la pena. Antes de empezar tengo que decir que las escalas que vas a ver son escalas que alguna vez, generalmente, he utilizado tocando solo o en jams, estas escalas no son tan intuitivas como las escalas básicas, simplemente quiero mostrar algunas de las distintas posibilidades que existen para que tu puedas construir tus propias escalas

En esta leccion van a aparecer algunos terminos que sera necesario que conozcas para ejecutar la escalas, estos terminos son:

Slide: consiste en deslizar el dedo hasta la siguiente nota de la escala, el slide puede ser de una nota superior a inferior (6 a 4) o de una nota inferior a superior (4 a 6). En la escala el slide aparecera como una barra inclinada entre las 2 notas; por ejemplo si aparece en la escala algo asi como ---6--\--4--- significa que deberas de tocar el traste 6 de la cuerda que debas de tocar y despues SIN quitar el dedo de la cuerda deberas de desplazarte hasta el traste 4 de la cuerda. Los slides pueden empezar en cualquier traste y cuerda y acabar en cualquier traste y cuerda.

Choking: consiste en "estirar" una cuerda hacia arriba y hacia abajo con el dedo que este pisando ese traste, con ello se consigue mantener el sonido de la nota y darle más cuerpo y mas fuerza a la escala. En la escala el choking aparecera como un signo > encima de la nota que debes de "estirar".



16.- Patrón

>
--------------------------------------------------------------------------------------9---------
----------------------------------------------------------------11---10---9---7-------------
---------------------------------------11---------11----9------------------------------------
--9--\--11---------------11---9-----------9------------------------------------------------
----------------10---9------------------------------------------------------------------------
------------------------------------------------------------------------------------------------





Un solo slide y un único choking, fácil ¿no?...



17.- Patrón

> > > >
--------------------------------------------------------------2--\--4--\---2----0--------
----------------------------------------------------2---0----------------------------------
-------------------------------------------2---0-------------------------------------------
--------------------------------2---0------------------------------------------------------
-----------------------3---0---------------------------------------------------------------
--3--3--3--3----0------------------------------------------------------------------------

Un par mas de slides y varios choking, como veras la escala es más completa y con más fuerza



18.- Patrón

> >
-----------------------------------------------------------------------------------8---7---5---
---------------------------------------------------------7---6---5---5--\--7------------------
--7----------------------------7------7------7----5-------------------------------------------
------5----7----9---7---5-------5-------5----------------------------------------------------
-----------------9---7---5----------------------------------------------------------------------
-----------------9---7---5----------------------------------------------------------------------



Una escala diferente con cambios importantes. Lo esencial es que marques bien el choking en las notas y los grupos de 3 notas (999-777-555) puedes hacer un slide continuo desde el traste 7 pasando por los 3 grupos de notas quizás asi te sea más facil ejecutar esta escala.



19.- Patrón

>
-----------------------------------------------------------------------------------7---5---7-------------------7---5---7---
--------------------------------------------------------------------------7----5---------------5--\--7--\--5----------------
----------------------------------------------------------------7---4---------------------------------------------------------
-------------------------------------------------------7---4------------------------------------------------------------------
---------------------------------------------7---5----------------------------------------------------------------------------
----0--5--\--7--7--7--7--7--7--7--5-------------------------------------------------------------------------------------



El comienzo de esta escala es muy tipico en la mayoria de los temas blues, puedes hacer este este inicio en cualquier traste aunque recomiendo empezar en la cuerda más aguda (en la primera).



20.- Patron

>
-----------------------------------------------------------------------------------------------------------------------------
-----------------------------------------------------------------------------------------------------------------------------
-----------------------------------------------------------------------------------------------------------------------------
------------------------------------------------------------------------------------------------15---13---15-------------
--12--\--13--\--12--\--13--\--12--\--13--\--12--\--13----------------16---15---13----------------------------
--12--\--13--\--12--\--13--\--12--\--13--\--12--\--13----16---13-----------------------------------------------



> >
-----------------------------------------------------------16---13---11--\--13--------------------------
-----------------15--------------------15---14---13-----------------------------11--13--15---------
---15--\--13--------13---15---13----------------------------------------------------------------------
-------------------------------------------------------------------------------------------------------------
-------------------------------------------------------------------------------------------------------------
-------------------------------------------------------------------------------------------------------------

Bueno, la ultima escala de esta lección, improvisación total, en ella se observan slides, choking, repeticiones... esta escala es un buen ejemplo de repaso de los patrones anteriores.

Bueno, esta ha sido la primera lección de escalas avanzadas, con ella ya tienes un poco más de conocimiento acerca de las escalas, repito lo dicho anteriormente: practica, practica, practica y sobre todo escucha un buen blues!


LECCION 5
ESCALAS AVANZADAS DE BLUES (PARTE 2)



Esta va a ser la ultima lección sobre escalas avanzadas; con ella acabaremos el repaso de algunas escalas que yo he utilizado tocando con amigos o sólo. Con estas 5 lecciones ya tienes una base para poder empezar a improvisar tus propias escalas que es de lo que se trata: encontrar un estilo personal e intimo, como el blues....



21.- Patrón

> > > > > >
----------------------------------------------------------------------------------------------------------------------------
----------------------------------------------------------------------------------------------------------------------------
-----------------------------------------------------------------------------------19--------------------------------------
------------------------------------------------------------------19--17--19--------17--19--19--19--19--19-----
--------------------------------------------------20--19--17------------------------------------------------------------
-20--17--20--17--20--17--20--20--17----------------------------------------------------------------------------

>
------------------------------------------------------------------------------
------------------------------------------------------------------------------
--------------19-------------------------------19--17--19---------------
---19--17--------19--\--21--\--19--17--------------------------------
------------------------------------------------------------------------------
------------------------------------------------------------------------------



Una escala con fuerza y en trastes altos, precisamente su difultad está en tocarla correctamente en estos trastes, pero la verdad es que merece la pena. Como antes he dicho eres libre de modificarla e improvisar sobre ella para que encuentres el sonido que te guste.



22.- Patrón

> >

--5--8-------------------------------------------------------------------------------------------------------------------
---------5--6--7---------------------------------------------------------------------------------------------5--6--7--
-----------------------------------------------------------------------------7--5--7------------------------------------
--------------------------------5---7---7-----------------------------5------------------------------------------------
---------------------------------------------5---8-----------------------------------------------------------------------
--------------------------------------------------------------------------------------------------------------------------







23.- Patrón

>
--------------------------------------------------------3--1--3----------------------------------------------------------
------------------------------------------------3--1----------------------------------------------------------------------
-----------------------------------------3--0----------------------------------0--3--------------------------------------
----------------------------------------------------------------------------------------0--3------------------------------
----------------3--2--1----------------------------------------------------------------------1--2--3--------------------
--5--\--3--1--------------------------------------------------------------------------------------------0---3------------



24.- Patrón

>
---------------------------------------------------------------------------------------------------------10----------------
------------------------------------------------------------------------10--7-------------------------------7--8--9-----
---------------------------------------------------------------10--7------------------------------------------------------
----------------------------------------------------------------------------------------------------------------------------
----------------------------------10--8-----------------------------------------------------------------------------------
--10--8--10--8--10--10--8--------------------------------------------------------------------------------------------



25.- Patrón

> >
-------------------------------------------------------------------------------------------------------10----------
-----------------------------------------------------------------------------------12--11--10--8----------------
---------------------------------------------------------------------------------------------------------------------
-----------------------------------------12--10--12--------------------------------------------------------------
---------------------------------------------------------------------------------------------------------------------
--13--10--13-----------------------------------------------------------------------------------------------------



Como habrás podido ver los patrones 22, 23, 24 y 25 están incompletos, tienen unos saltos en la escala.. pues ahí entras tu en acción, he pensado que sería un buen ejercicio que tu completaras esos espacios con las notas que quieras y con efectos (slides, choking, repeticiones...). Estos 4 ultimos patrones te pueden servir para hacer un repaso de las 5 lecciones ademas al completar estos patrones habrás hecho una de las cosas más importantes de un buen blues: la improvisación.

Tu mismo puedes coger cualquiera de las 25 escalas anteriores y quedarte solo con un par de notas e intentar acabarla de una forma diferente... de eso se trata: de tener una base y a partir de ella crear tus propias escalas y tu propio sonido.



Bueno, ya hemos terminado con las lecciones acerca de las escalas; creo que 25 patrones/escalas son suficientes para hacerte una idea de este estilo. Las escalas que has visto en estas lecciones pueden parecerte muy básicas, pero la mayoría de ellas son la llave que te dará acceso a las escalas más complicadas. Si quieres progresar y aprender más acerca de las escalas blues te recomiendo que adquieras alguno de los metodos que venden sobre el Blues y lo de siempre..... practica, practica y escucha un buen Blues!!


LECCION 6
ACORDES BLUES (PARTE 1)



Evidentemente el blues no es sólo punteo ni escalas, los acordes juegan uno de los papeles relevantes
en este estilo, el acompañamiento. En las siguientes lecciones de acordes voy a mostrar algunos de l
os acordes que generalmente uso y que creo que son importantes para tocar temas blues.



He pensado que estas lecciones unicamente sirvan para reconocer los acordes blues mas comunes,
evidentemente hay más acordes que te pueden servir pero considero oportuno mostrar aquí los acordes
que suelo utlizar, las lecciones relacionadas con el ritmo del blues que vendrán después serviran de
complemento a estas.



Los acordes están representados por 6 lineas verticales, siendo la linea vertical de la izquierda del todo
la sexta cuerda (la mas gruesa) y la linea vertical de la derecha del todo la primera cuerda (la más fina),
cada asterisco en el acorde muestra qué cuerdas hay que pulsar para ejecutar el acorde, si aparece
una fila de asteriscos seguidos ese acorde hay que tocarlo con una cejilla y cuando al lado de la cejilla
aparezca por ejemplo "octavo traste" deberas de hacer la cejilla en ese traste, si aparece tambien esta
indicación en un acorde sin cejilla es para que sepas en que traste esta el acorde. Debajo del acorde

está el nombre del mismo









1.- Primer grupo de acordes







|||*|| |||*|| ||||||

|**||| |**||| ||***|

|||||| ||||*| ||||||

|||||| |||||| ||||||



Mi Mayor (E) Mi Mayor Septima (E7) La Mayor (A)











|||||| ****** 5º Traste ||||||

||***| |||*|| ||****

|||||* |**||| ||||||

|||||| |||||| ||||||



La Mayor septima (A7) La Mayor (A) La Sexta (A6)













||||*| 5º Traste ||||*| ||||*| 3º Traste

||*||| |||*|* ||*|||

|*|*|| |||||| |*|*||

|||||| |||||| ||||||





Mi Mayor Septima (E7) Re Mayor Septima (D7) Re Mayor Septima (D7)


LECCION 7
ACORDES BLUES (PARTE 2)



Hemos visto en la anterior lección 9 acordes que generalmente son utilizados en blues, estos no son complicados de ejecutar, quizas un poco los acordes de cejilla pero como todo es cuestión de práctica. En esta lección veremos el segundo grupo de acordes que te ayudaran en los acompañamientos blues y a la hora de hacer tus propios temas blues.

En estas lecciones de acordes habras visto que hay acordes que se llaman igual pero que se pueden tocar de diferente manera, esto se da sobre todo en los acordes con cejilla. Dejo a tu elección que practiques con los acordes que mas se adecuen a tu estilo.

Tambien aclarar que si al lado de un acorde aparece "Noveno traste" por ejemplo significa que en ese traste tiene que ejecutarse el acorde, aunque el acorde no lleve cejilla.







2.- Segundo grupo de acordes







||**** 7º Traste ||**** 9º Traste ||||*|

|||||| |||||| ||*|||

|||||| |||||| |*|*||

|||||| |||||| ||||||



Re Sexta (D6) Mi sexta (E6) Do séptima (C7)









||||*| 4º Traste ****** 5º Traste ****** 5º Traste

||*||| |||*|| ||||||

|*|*|| |*|||| ||*|*|

|||||| |||||| ||||||



Re sostenido séptima La sèptima (A7) Fa sostenido menor (F#m)

(D#7)


Próxima actualización Acordes Blues (Parte 3)

guitarra


keep on rocking in the free world!

Saludos!
lecciones acordes tododedulcedeleche escalas Blues
Lecciones de Blues!

Fuentes de Información - Lecciones de Blues!

Dar puntos
40 Puntos
Votos: 6 - T!score: 7/10
  • 2 Seguidores
  • 12.613 Visitas
  • 33 Favoritos

Comentarios Destacados

@kevintejas Hace más de 2 años +5
no mames esa madre es de una pagina de internet!! sacalo de tu cerebro cabron!!

5 comentarios - Lecciones de Blues!

@legolasxxx Hace más de 5 años +1
no tengo idea como afinar la guitarra en otro tono :S
@kevintejas Hace más de 2 años +5
no mames esa madre es de una pagina de internet!! sacalo de tu cerebro cabron!!
@Meegss Hace más de 1 año
Seria mas instructivo si pones un video demostrando esas escalas o esas tablaturas con un cierto tiempo de ejemplo, si queres enseñar algo detallà. con onda igual
@rg350exz Hace más de 10 meses
Es muuuuuy malo....
@luigibross26 Hace más de 9 meses
buen intento amigo...