Tablaturas para Guitarra

Hola Taringa acá les dejo algunas Tablaturas Para tocar con la guitarra:
Hay de todo y ninguna esta muy difícil
Por ahí les resulta jodido porque hay algunas que esta al revés

Smoke on the Water – Deep Purple

1|-----------------|---------------|----------------|---------------||
2|-----------------|---------------|----------------|---------------||
3|--0---3---5----0-|---3---6-5-----|-0---3---5----3-|---0----(0)----||
4|--0---3---5----0-|---3---6-5-----|-0---3---5----3-|---0----(0)----||
5|-----------------|---------------|----------------|---------------||
6|-----------------|---------------|----------------|---------------||

1|----------------|---------------|----------------|-----------------|
2|----------------|---------------|----------------|-----------------|
3|-0---3---5----0-|---3---6-5-----|-0---3---5----3-|---0----(0)------|
4|-0---3---5----0-|---3---6-5-----|-0---3---5----3-|---0----(0)--(5)-|
5|----------------|---------------|----------------|-------------(5)-|
6|----------------|---------------|----------------|-----------------|
* Tambien se pueden tocar lo mismo en la 6ta cuerda y queda bien!

Paint in Black- Rolling Stones

1|-------5-----------------------------------
2|-5-7-8---8-7-5-5---5-7----4-5-7--5-4---4---
3|-----------------8------6------------6-----
4|-------5-----------------------------------
5|-5-7-8---8-7-5-5---5-7-5-4-----------------
6|-----------------8-------------------------

Los Piojos - Como Ali

1--------------------------------------------------
2-----------------------------------6--5-----------
3-----------7-----------7-----------------5--7----- x2
4--5--7--8-----5--7--8-----5--7--8-----------------
5--------------------------------------------------
6--------------------------------------------------

Otherside – Red Hot Chili Pappers

1-------------------------------------
2-------------------------------------
3-------------------------------------
4-------------------------------------
5-----------2-2-4-2-0-----------------
6--2--2--2-------------2-2-2-0-0-0-2--

Tablatura de SWEET CHILD OF MINE – Guns` n Roses.

|-----------------15---------14-------|
|-----15------------------------------|
|---------14--12------14-----------14-|
|%-12--------------------------------%|
|-------------------------------------|
|-------------------------------------|

|------------------15--------14-------|
|------15-----------------------------|
|---------14--12--------14---------14-|
|%-14--------------------------------%|
|-------------------------------------|
|-------------------------------------|
_______________________________________

|----------------------15----------14--------|
|---------15---------------------------------|
|-----12-------14--12--------14-----------14-|
|%------------------------------------------%|
|--------------------------------------------|
|--------------------------------------------|

Tablatura de Flaca – Andres Calamaro

Intro:

6 -------------------------------------------------------------------------------------------
5 -------------------------------------------------------------------------------------------
4 -------------------------------------------------------------------------------------------
3 ---------2-0------------2-0---------0-----------0-3--1-1----------2-0-2---------2-0--
2 ---3--0-------0-3-4--0-----0-4-5-----2-0--2--------------0-3--0--------0-3-0--------
1 -------------------------------------------------------------------------------------------


Popotito


Riff 1 x4
E----------------------------------------
B----------------------------------------
G----------------------------------------
D---------------------2-2-0--------------
A---------------2-4-----------4-2--------
E-----0-0-3-4----------------------------

Riff 2 x4
E----------------------------------------
B----------------------------------------
G---------------------2-2-0--------------
D---------------2-4-----------4-2--------
A-----0-0-3-4----------------------------
E----------------------------------------


E----------------------------------------
B----------------------------------------
G----------------------------------------
D----------------------------------------
A------------6-6--7-7-8--9---------------
E------7-7-------------------------------


E----------------------------------------
B----------------------------------------
G----------------------------------------
D----------------------------------------
A---------4-4-5-5-6--7-------------------
E----5-5---------------------------------

Iron Man - Black Sabbath

Riff

|---------------------------------------------------------------------------|
|---------------------------------------------------------------------------|
|---------------------------------------------------------------------------|
|---------------------------------------------------------------------------|
|-4---7---7---9--9---12-11-12-11-12-11-12---7--7--9--9-----|
|-2---5---5---7--7---10--9--10--9-10--9--10---5--5--7--7------|
|-----------------------------------------------------------------------------|
Paranoid - Black Sabbath

Riff

|----------------------------------------------------|
|----------------------------------------------------|
|-------------------7-9--------7-9-----------------|
|--9--9-----7-9--------7-9------------------------|
|--7--7---------------------------------------------|
|----------------------------------------------------|


|5--7---------------3--3--5--5--5--5--5| Es asi salvo el


Shunshine Of Your Love - Cream

Riff

|--------------------------------------------------------------------|
|--------------------------------------------------------------------|
|--------------------------------------------------------------------|
|------12--12---10---12------------------------------------------|
|------------------------------12--11--10------8^----------------|
|----------------------------------------------10------10----------|

NOTA!: Donde dice 8^ hay que estirar un poco la cuerda

Thunderstruck - AC/DC

RAPIDO

Intro o riff

Va dos veces..

|-------------------------------------------------------------------------------------------|
|0-4-0-7-0-4-0-7-0-4-0-7-0-4-0-7-0-4-0-7-0-4-0-7-0-4-0-7-0-4-0-7-0---------|
|-------------------------------------------------------------------------------------------|
|-------------------------------------------------------------------------------------------|
|-------------------------------------------------------------------------------------------|
|-------------------------------------------------------------------------------------------|

|-------------------------------------------------------------------------------------------|
|0-5-0-8-0-5-0-8-0-5-0-8-0-5-0-8-0-5-0-8-0-5-0-8-0-5-0-8-0-5-0-8-0---------|
|-------------------------------------------------------------------------------------------|
|-------------------------------------------------------------------------------------------|
|-------------------------------------------------------------------------------------------|
|-------------------------------------------------------------------------------------------|


|-------------------------------------------------------|-------------------------------------------------------|
|-0-12-0-10-0-9-0-10-0-9-0-7-0-9-0-7-0---|-0-12-0-10-0-9-0-10-0-9-0-7-0-9-0-7-0-------------|
|-------------------------------------------------------|-------------------------------------------------------|
|-------------------------------------------------------|-------------------------------------------------------|
|-------------------------------------------------------|-------------------------------------------------------|
|-------------------------------------------------------|-------------------------------------------------------|

|-----------------------------------------------------------|-------------------------------|
|-0-12-0-10-0-9-0-10-0-9-0-7-0-9-0-7-0-5-0-|-4-0-5-0-4-0-2-0-4-0-2---------|
|-----------------------------------------------------------|-------------------------------|
|-----------------------------------------------------------|-------------------------------|
|-----------------------------------------------------------|-------------------------------|
|-----------------------------------------------------------|-------------------------------|

Cuando termina esto Malcon Young(el 2do guitarrista hace)

|-----------------------------------------------------------|
|-----------------------------------------------------------|
|-----------x---x--x--x--x--x--x--------------------------|
|---4-4----x---x--x--x--x--x--x--------------------------|
|---2-2-----------------------------------------------------|
|------------------------------------------------------------|

Lo hace todo el tiempo que el coro hace thunder ahahahahah thunder!

NOTA!: las equis equivalen al traste 2 y 4 respectivamente

Whole Lotta - Led Zeppellin

Intro

|--------------------------|------------------------------------------------------------|
|--------------------------|------------------------------------------------------------|
|--------------------------|------------------------------------------------------------|
|--------------------------|--9---x---x---9---x---x---9---x---x---9---x---x---9-|
|------------5-------5----|--7---x---x---7---x---x---7---x---x---7---x---x---7-|
|-------7-------7--------|------------------------------------------------------------| se repite

NOTA!: en las x tenes que tocar el traste 7 y 9 pero no apretarlo, apenas tocarlo cosa que no seuene


Black Dog - Led Zeppellin

Intro (uno solo no se los otros )

|--------------------------------------------------------------------------------------|
|-------------------------5------------------------------------------------------------|
|---------------5-----7-----5-7-5-------5------------------------------------------|
|----5-6-7--------7-------------------7------7--5-7-7-----------------2---------|
|-7---------7-------------------------------------------------5-7-3-5-0-0---------|
|---------------------------------------------------------------------------------------|


Paradise City - Guns N' Roses

Un solito de todo el tema
|----------------------------------------------------------|
|----------------------------------------------------------|
|----------------------------------------------------------|
|----------------------------------------------------------|
|--------------------------------1------------------------|
|-3-1-2-3-1-2-3-1-3-1-3---------------------------|

El Padrino

Ya se que no es de rock, pero como slash la toca y a muchos les gusta se las pongo...

|---0--3--2--0--3--0--2--0---------------|------0--3--2--0--3--0--2--0------------|----------0--2--------------0-|
|-0-----------------------------1--3--0---|-0----------------------------------0--------|------1---------------0--4---|
|------------------------------------------|----------------------------------------3--2-|-0-----------------0-----------|
|------------------------------------------|----------------------------------------------|--------------------------------|
|------------------------------------------|----------------------------------------------|--------------------------------|
|------------------------------------------|----------------------------------------------|--------------------------------|

|----3----------------------------|
|--------3--1-0-3-1-0-0--4---|
|--------------------------------0|
|2-------------------------------|
|----------------------------------|
|----------------------------------|

No Me Arrepiento De Este Amor

Intro

|-----------------------------|-------------------------------|------------------------------------|--------------------------------------|
|-----------------------------|-------------------------------|------------------------------------|--------------------------------------|
|-----------------------------|-------------------------------|------------------------------------|--------------------------------------|
|-----------------------------|-------------------------------|------------------------------------|--------------------------------------|
|-----------------------------|---------3--5--5---------5--|--5--5--6--5--3--3-------------|---------3--5--3--------------------|
|--3--5--6--6--5--5--3---|--3--6------------6--6------|------------------------6--6--5--|--5--5-------------6--6--5--5--3-|
Se repite


Zafar la - vela puerca
Lam Lam Rem Sol
|------------||-------------||---------1-----||-----------3-------|
|-------1----||--------1----||---------3-----||-----------3-------|
|-------2----||--------2----||------2-----2--||-------0------0----|
|----2-----2-||-----2-----2-||---0-----------||-------------------|
|-0----------||--0----------||---------------||-------------------|
|------------||-------------||---------------||---3---------------|


Paint in black:

2|--2-4-5-7-5-4-2-2-1-3-1-|

todo en la segunda cuerda

One de metalica:

e|---------------------------------------------------------------------------|
b|---------------------------------------------------------------------------|
g|------------------------------------------------------------------------0--|
D|----4-----0--(0)------4-----0--(0)-------4-----0--(0)------4-----0--(0)----|
A|-2-----2------------------------------2-----2------------------------------|
E|-------------------3-----3------------------------------3-----3------------|


e|--------------------------------------------------------------------|
b|--------------------------------------------------------------------|
g|--------------------------------------------------------------------|
D|----4------0--(0)------4-----0--(0)------4-----0--(0)---------------|
A|-2-----2------------0-----0--------------------------------2-----2--|
E|--------------------------------------3-----3-----------0-----2-----|

Crazy train de ozzy obsoure:

e|-----------------------------------------------------------
B|-----------------------------------------------------------
G|-----------------------------------------------------------
D|-----------------------------------------------------------
A|--------4-----5-----4-----2-----------2--------------------
E|---2--2----2-----2-----2-----5--4--5-----5--4--0-----------

Popotito Seru giran

----------------------------
----------------------------
----------------------------
-------------2-2-0----------
---------2-4-------4-2-4----
-0-0-3-4-----------------3-4

Fijate los piojos

E-3-1-0-----3/5---3-1-0------|
B-------3-2-------------3-0--|
G----------------------------|
D----------------------------|
A----------------------------|
E----------------------------|

Langostas los piojos

1º/ mi |----------2-----------------2----------|
2º/ Si |-------3-----3-----------3-----3-------|
3º/ Sol|----2-----------2-----2-----------2----|
4º/ Re |--0----------------0-----------------0-|
5º/ La |---------------------------------------|
6º/ Mi |---------------------------------------|

Riff en La, para el estribillo
1º/ mi |-------------------------|
2º/ Si |-------------------------|
3º/ Sol|-------------4/5/4-L-2---|
4º/ Re |--2---2-2--2-----------2-|
5º/ La |--0---0-0--0-----------0-|
6º/ Mi |-------------------------|

e--10-9-----9-7----7---------------
b--------------------10----10-7----
g----------------------------------
d---------------------------------- x3 [en el puente
a---------------------------------- lo hace x2]
e----------------------------------

E
b--7-8---7-8---10-8-7-8---7-8---7-8---7-----
g---------------------------------------10-8
d------------------------------------------- [x2 en el
a------------------------------------------- puente]
e-------------------------------------------

Los Piojos - Como Ali

Intro y riff

--------------------------------------------------
-----------------------------------6--5-----------
-----------7-----------7-----------------5--7----- x2
--5--7--8-----5--7--8-----5--7--8-----------------
--------------------------------------------------
--------------------------------------------------






Fuego - intoxicado


E--0----------|---------|-----------|------0----------|
B----3-1-0-3--|------3--|--2-----2--|--1--------------|
G-------------|----0----|------0----|----0--(0)-------|
D-------------|---------|--1-1------|-----------------|
A--3-2-0---2--|--2------|-----------|--0--------------|
e--------3----|---------|-----------|-----------------|

E--0----------|---------|-----------|------0----------|
B----3-1-0-3--|------3--|--2---2----|--1--------------|
G-------------|----0----|----0---0--|----0--(0)-------|
D-------------|---------|--1--------|-----------------|
A--3-2-0---2--|--2------|-----------|--0--------------|
e--------3----|---------|-----------|-----------------|

E--0----------|---------|-----------|------3--3---3---|
B----3-1-0-3--|------3--|--2-----2--|--1-----1--1---1-|
G-------------|----0----|------0----|----0------------|
D-------------|---------|--1-1------|-----------------|
A--3-2-0---2--|--2------|-----------|-----------------|
e--------3----|---------|-----------|--0--------------|


E--3---3----2-----------------------------------------||
B--------1------1-------------------------------------||
G----0--------2---------------------------------------||
D--0--------0-----------------------------------------||
A-----------------------------------------------------||
e-----------------------------------------------------||

Mariposa technicolor – Fito Paez

INTRO:

E ---------------------------------------
B ---------------------------------------
D -------9-------------------------------
G ---------------------------------------
A ------------7------------7-------------
E -------------------7-------------------
(REPETIR CUATRO VECES)


E-------------------------------------------------------
B----------------------9--------------------------------
D--------------------9---------------------------9---11-
G------9--8--9---8----------------9---8---9---8---------
A---7------------------------7--------------------------
E-------------------------------------------------------


B-------------------------------------------------
D-------------------------------------------------
G-------------------------9-----------------------
E--------9----8---9---8---------------------------
A---7---------------------------------------------
--------------------------------------------------


Fantasma – Arbol

||--10-7-8-10----8-7-8---5-7-8---7-5-7---3-5-7---3-5-7---3-5-7---5-7-8--7-8-10-->
||------------------------------------------------------------------------------>
||------------------------------------------------------------------------------> sigue>
||------------------------------------------------------------------------------>
||------------------------------------------------------------------------------>
||------------------------------------------------------------------------------>

>--8-10-11--10-8-7-8-7----||
>-------------------------||
>-------------------------||
>-------------------------||
>-------------------------||
>-------------------------||

El RIFF 1 lo repite cuando cambian los acordes y tambien sube un tono y medio (es decir, en vez
de empezar en 10 traste empieza en el 13 traste y de ahi lo hacen igual)

RIFF 2
3:05 esto lo hace mientras cantan un pedazito y despues sigue.
||---------------------------------------------||
||-------------8-6---8-6---8-6---8-6--4-3-4-3--|| x4
||---------------------------------------------||
||-8-8-8-8-8-8-----8-----8-----8---------------||
||---------------------------------------------||
||---------------------------------------------||

RIFF 3
Cuado terminan de tocar 4 veces el punteo anterior tocan este hasta q termina el tema.
||---------------------------------------------------------------||
||-----6----6----6----6----6----6----4----4----4----4----4----4--||
||---7----7----7----5----5----5----3----3----3----3----3----3----||
||---------------------------------------------------------------||
||---------------------------------------------------------------||
||---------------------------------------------------------------||



11 y 6 – Fito Paez

INTRO:

-------------10-9---9-10-9-7--------9-10|14|10~9-7~~-9-10-9-7----11-9--------
------7-8-10-----------------10-9-7-----|---|-----------------10--------------
-7-9------------------------------------|---|---------------------------------
----------------------------------------|---|---------------------------------
----------------------------------------|---|---------------------------------
----------------------------------------|---|-------------------------
--------

-9-10-9-7-------------------------|-|-|-------------------------------
----------10~~-10-9-10-9-10-9-7---|-|-|-------------------------------
--------------------------------9-|-|-|-------------------------------
----------------------------------|-|-|-------------------------------
----------------------------------|-|-|-------------------------------
----------------------------------|-|-|-------------------------------
Repeat!!!
-------------10-9---9-10-9-7--------9-10|14|10~9-7~~-9-10-9-7----11-9--------
------7-8-10-----------------10-9-7-----|---|-----------------10--------------
-7-9------------------------------------|---|---------------------------------
----------------------------------------|---|---------------------------------
----------------------------------------|---|---------------------------------
----------------------------------------|---|---------------------------------


-9-10-9-7-------------------------|-|-|-------------------------------
----------10~~-10-9-10-9-10-9-7---|-|-|-------------------------------
--------------------------------9-|-|-|-------------------------------
----------------------------------|-|-|------------------------------
----------------------------------|-|-|-------------------------------
----------------------------------|-|-|-------------------------------

La notas después del punteo son estas y se tocan en ritmo balada!!!!!!

-3------------------------3-------------------------------------------
-0------------------------1-------------------------------------------
-0------------------------2-------------------------------------------
-0------------------------0-------------------------------------------
-2------------------------0-------------------------------------------
-3------------------------0-------------------------------------------


La Pantera rosa – Musiaca de Peliculas

1/--------------------|----|---------------|
2/--------------------|----|---------------|
3/--------------------|-3x-|---------------|
4/-6/7-8/9------------|----|--9/8-7/6------|
5/-4/5-6/7------------|----|--7/6-5/4---3--|
6/---------0-7-7-0-0--|----|----------3----|


1/---------------------8-7-----7-6--|-5-3-----------|----|
2/---------7-8-----7-8-----7-8------|-----5-3-3/5-5-|----|
3/-------------8-9------------------|---------------|-2x-|
4/-6/7-8/9--------------------------|---------------|----|
5/-4/5-6/7--------------------------|---------------|----|
6/----------------------------------|---------------|----|


1/---------------------8-7-----12-11-|
2/---------7-8-----7-8-----7-8-------|
3/-------------8-9-------------------|
4/-6/7-8/9---------------------------|
5/-4/5-6/7---------------------------|
6/-----------------------------------|

1/---------10/12-10----------------------------------------------------|
2/------------------12-10------10/11/10--10/11/10--10/11/10--10/11/10--|
3/------------------------12-9-----------------------------------------|
4/-6/7-8/9-------------------------------------------------------------|
5/-4/5-6/7-------------------------------------------------------------|
6/---------------------------------------------------------------------|

1/-----------|----|
2/-8---------|----|
3/---9-7-9-9-|-2x-|
4/-----------|----|
5/-----------|----|
6/-----------|----|


Wasted Years – Iron Maiden

6|----------------------------------------------------------------------|
5|----------------------------------------------------------------------|
4|----------------------------------------------------------------------|
3|----------------------------------------------------------------------|
2|----------------------------------------------------------------------|
1|--0-12-0-7-0-8-0-5-0-7-0-3-0-2-0-3-0-5---0-2-0-3-0-5------|


“Mama i`m coming home” Ozzy Osbourne.

MI
6|--------------------------------------------------------------------0---|
5|--------------------------------------------------------------------2---|
4|--------------------11-------9------7----------6------4----------2---|
3|---9--------8------------------------------------------------------1---|
2|-----0--------0---------0------0--------0--------0--------0------0---|
1|-------0--------0---------0-------0-------0--------0--------0----0---|

“Smoke on the Water” Deep Purple.

6|--3--------------|---3------------------|---3------------|--------3----|
5|--5--1---3------|---5---1---4---3-----|---5---1--3----|--1----5----|
4|------3---5-----|--------3---6---5-----|--------3--5---|---3---------|
3|-----------------|------------------------|----------------|-------------|
2|-----------------|------------------------|----------------|-------------|
1|-----------------|------------------------|----------------|-------------|


Escalera al cielo – Led Zeppelin

INTRO:

Am E6/G# C/G Bm7 FMaj G/B A5
1|-----5--7----7--8----8--2---2-0-------0---------------|----------------|
2|----5-----5-------5-------3-----1---1---1-------------|----------------|
3|---5-------5--------5------2------2-------2---0--2-2--|----------------|
4|--7-----6-------5-------4-----3--------------------2--|----------------|
5|----------------------------------------------2--0-0--|0--3(A)8--7-----|
6|------------------------------------------------------|----------------|
ESTA INTRODUCCION SE REPITE UNA VEZ MAS HASTA LA LINEA


2°PARTE:

G/B C Bm7 FMaj7 G/B C G Dsus4-D
1|------------0---2-----2--0------0-----|----------------3----3----3(A)2-2-|
2|------------------3--------1----------|------1------1--------------3---3-|
3|-----------0--------2--------2----2---|---------0--------4-------2-------|
4|---------2------4--------3------------|-----------2-------5------0-----0-|
5|-0-2--3-----------------------------0-|0--2--3---------------------------|
6|--------------------------------------|----------------3-----------------|

SE REPITE LA PARTE QUE ESTA ANTES DE ESTA LINEA, DESPUES TOCA ESTO:

G/B C D FMaj7
1|---------------------3----3--0-0-0---|
2|--------------1--------3-----1-1-1---|
3|------------0------------2---2-2-2---|
4|----------2----------0-------3-3-3---|
5|--0-2---3----------------------------|
6|-------------------------------------|

(A):ARRASTRAR


Come as You are – Nirvana

Intro:

1|-----------------------------------------------------------|
2|-----------------------------------------------------------|
3|-----------------------------------------------------------|
4|-----------------------------------------------------------|
5|---------0---0---------2-----2-------0---0---------2-----2-|
6|-0-0-1-2---2---2-2-1-0---0-0---0-1-2---2---2-2-1-0---0-0---|



Solos de Musica Ligera – Soda Stereo

Referencias
/= Arrastrar
^= Vibrar cuerda

Solo 1:

1|------------------------------------------------||
2|------------------------------------------------||
3|------------------------------------------------||
4|----------0------0------------------------------||
5|--2--2--4------4---4-2-0---2--0-----------------||
6|-------------------------2-------2-0-2-0--------||

1|------------------------------------------------||
2|------------------------------------------------||
3|----------------------------------2-------------||
4|----------0--2--4--2--0-------------0--2/4--4/7-||
5|--2--2--4---------------4--2----0---------------||
6|------------------------------------------------||

Solo 2:

1|--7--5--7--5--7--5/2--2-0-2-(5.2.0)-2--5/7-7--||
2|----------------------------------------------||
3|----------------------------------------------||
4|----------------------------------------------||
1|-----12-10-9-10-12-10-9-7-9-7-5-||
2|--------------------------------||
3|--------------------------------||
4|--------------------------------||

1|---0-(5.7.5)--0-(5.7.5)--0-(7.9.7)-0-(7.9.7)-0-----||
2|---------------------------------------------------||
3|---------------------------------------------------||
4|---------------------------------------------------||

1|---14--12--14--12-14-15-14-12--12-14-15-14-12-10-9-10-12-10-9----||
2|-----------------------------------------------------------------||
3|-----------------------------------------------------------------||
4|-----------------------------------------------------------------||

1|---2-(5.2.0)-2----5-(7.5.0)-5---2-(5.2.0)--2--------||
2|----------------------------------------------------||
3|----------------------------------------------------||
4|----------------------------------------------------||

1|--5.7.5--7.9.7--9.11.9--10.12.10--14--||
2|--------------------------------------||
3|--------------------------------------||
4|--------------------------------------||

Fuentes de Información - Tablaturas para Guitarra

Dar puntos
207 Puntos
Votos: 37 - T!score: 6/10
  • 7 Seguidores
  • 42.534 Visitas
  • 41 Favoritos

15 comentarios - Tablaturas para Guitarra

@chinoxplotion Hace más de 4 años
jaja muy bueno sake algunos
@Sucu22 Hace más de 3 años
muy buea a de la pantera rosa, te van 5
@BMX64 Hace más de 3 años
esta bueno + 10
@cordobez_07 Hace más de 3 años
la de ACDC nunca me puse a sacarla...pero era una pavada! jeje +10
@Argus_x123 Hace más de 3 años
voy a probar algunas aver si me salen
@0_puntos Hace más de 2 años
buen post saque alguna =)
@Tomikz Hace más de 2 años
Nunca entendí esos gráficos

se puede explicar por escrito? alguien me haría el favor?
@fhlameron Hace más de 2 años
Muy buen post
@juanpolo20 Hace más de 2 años
Muy buenas, pero sería ideal si las hubieses puesto completas...
@ailenashack Hace más de 2 años +2
mmm, la de slash (El padrino) es así

|----------------------------------------------------------------|
|-15---14-15-16--15-15---------15---14-15-16--15-15--------------|
|----------------------15---------------------------14-----------|
|----------------------------------------------------------------|
|----------------------------------------------------------------|
|----------------------------------------------------------------|

|------------------------/--------/-------------/-------------|
|-15---14-15-18--15-14-15-(15)---14-(14)---/---14-(14)----------|
|----------------------------------------14-(14)--------14-------|
|----------------------------------------------------------------|
|----------------------------------------------------------------|
|----------------------------------------------------------------|

|----10-13-12-10-13-10-12-10-------------------------------------|
|-10-------------------------11-13-10----------------------------|
|----------------------------------------------------------------|
|----------------------------------------------------------------|
|----------------------------------------------------------------|
|----------------------------------------------------------------|

|----10-13-12-10-13-10-12-10-------------------------------------|
|-10-------------------------/10-9-8-----------------------------|
|----------------------------------------------------------------|
|----------------------------------------------------------------|
|----------------------------------------------------------------|
|----------------------------------------------------------------|

|-----------/-------6-9-9----------------------------------------|
|----6-10-10-----/8---------------13-11-10-13-11-10-10-----------|
|-/7---------------------------10--------------------------------|
|--------------------------/12---------------------------11-12---|
|----------------------------------------------------------------|
|----------------------------------------------------------------|

|-10-10-9-8-10/12-10-----------------------------------------10--|
|--------------------11-10----10-13-10-8----8-11-9-10-----10-----|
|----------------------------------------------------------------|
|----------------------------------------------------------------|
|----------------------------------------------------------------|
|----------------------------------------------------------------|

|-13^12^10--13^12^10--13^12^10---/---/--/--------------------------|
|------------------------------12--12--12-12-10-12-10-9-10-12-10-9-|
|------------------------------------------------------------------|
|------------------------------------------------------------------|
|------------------------------------------------------------------|
|------------------------------------------------------------------|

|-13-12-10-9-10-12-10-9----9-------------------------------------|
|-----------------------10---10-12-10-9----9----12---------------|
|---------------------------------------11---11----11-9----9-----|
|-------------------------------------------------------11---11--|
|----------------------------------------------------------------|
|----------------------------------------------------------------|

|-----------------------------9-10-------------------------------|
|--------13-11-10-13-11-10-10------------------------------------|
|-----10---------------------------------------------------------|
|-/12------------------------------------------------------------|
|----------------------------------------------------------------|
|----------------------------------------------------------------|


@Eeevi Hace más de 2 años
Creo que jamás voy a poder aprender guitarra :c
Siempre la agarré como diestra, pero soy zurda para escribir
Intenté un monton de veces y se me hace imposible hasta acomodar los dedos, soy re tosca
:'(
@durnes Hace más de 1 año
Existen guitarras para zurdos ._.
@lokario_park Hace más de 1 año
gracias
@juanchix11 Hace más de 1 año +1
Están mal las tablatura. El orden es: e.B.G.D.A.E de arriba para abajo... Están al revés D y G y en algunas e esta abajo
@axx2011 Hace más de 5 meses
muy bueno te dejo mas 10
@manuelahuenchur Hace más de 2 meses
que no hay nada de u2!