Hola amigos, aca les traigo un curso facil para aprender a tocar la guitarra. Esta hecho por mí, así que lo siento si hay faltas de ortografía...

Estructura de la Guitarra Clásica


¿Querés aprender Guitarra? Curso Básico Extra Facil...

Bueno, si queremos aprender a tocar la guitarra tenemos que conocer las partes o elementos que constan de ella. Voy a poner las partes de los dos tipos de guitarras, acústica y eléctrica, al primer tipo es la que recomiendo para aprender. La primera es una guitarra clásica y la segunda es una Les Paul. Ya no tarda en cargarse las imágenes...

Guitarra Clásica

Cuerdas
La guitarra consta de seis cuerdas que toman su nombre según el sonido que producen cuando se tocan al aire (sueltas) y se enumeran de abajo hacia arriba, tomando como referencia la posición normal en que se toma la guitarra para tocar. La cuerda más delgada es la número 1 y la más gruesa es la 6ta. En las clásicas o flamencas, las tres agudas son de nylon monofilamento y las graves tienen un núcleo multifilamento y un entorchado de cobre (plateado, cobre u otra aleación). En las eléctricas las cuerdas tienen núcleo de acero, el entorchado es de aleación níquel/hierro, acero niquelado u otro metal o aleación.

Clavijero
Su función es la de sostener y tensar las cuerdas, para ello consta de un mecanismo compuesto por tornillos sinfín que hacen girar un eje donde van enrolladas las cuerdas (estas son las clavijas), estos ejes poseen un agujero central por el que se introduce la cuerda. Algunos constructores utilizan diseños personales que permiten distinguir sus instrumentos. La parte frontal es de madera laminada.

La Cejuela (Superior) Es una pieza de forma alargada que va incrustada en la parte superior del diapasón, entre éste y el clavijero. Normalmente es de hueso o materiales sintéticos duros (tales como el grafito). La cejuela controla la altura de las cuerdas al aire sobre el primer traste y permite la separación de las cuerdas, fijándolas gracias a unas ranuras que lleva en su parte frontal.

Mástil - Diapasón El Diapasón es una pieza de ébano alargada de forma aplanada que cubre el Mástil, éste tiene una o dos ranuras en las que encajan en la caja y es de madera dura de arce, por la parte frontal. Esta dividido en espacios delimitados por unas barras de metal incrustadas llamadas Trastes, generalmente a éstos espacios se les llama igual. Cada espacio (o traste) representa una nota musical.

Cuerpo El Cuerpo o Caja de Resonancia es la parte principal y fundamental de las guitarras acústicas, está formado por la Tapa Superior o Tapa Armónica, la Tapa Inferior y los Costados. Es el encargado de amplificar los sonidos que se producen al tocar las cuerdas, cuando estas se golpean se produce una vibración que es recogida por el puente y se transmite a la tapa del cuerpo, la vibración que produce esta tapa es recogida y amplificada por el cuerpo de la guitarra, sonido que sale a través de la Boca.

Puente
El Puente es una pieza alargada y estrecha situada sobre la Tapa Superior a cierta distancia de la Boca. Es donde se fijan las cuerdas antes de colocarlas y tensarlas en el clavijero. El sistema de colocación es similar al del clavijero. Para graduar la altura de las cuerdas en las acústicas en la parte superior del puente nos encontramos con la Selleta (cejuela inferior) y en las eléctricas el mismo puente puede graduarlas, existen 2 principales tipos de puentes: el Tune-O-Matic (usado en las Les Paul) y el de las selletas individuales (usado en las Stratocaster - el que se puede controlar la altura de las cuerdas por separado). Algunas guitarras eléctricas, como las Les Paul, llevan un soporte llamado Cordal que es el que sujeta las cuerdas a la caja de la guitarra.

Pastilla Dispositivo con un bobinado (puede ser de bobina única como en la Strato o de dos como la Les Paul) de alambre delgado que transforma el sonido en señales eléctricas. Las pastillas se controlan mediante un Selector (o conmutador) de dos o tres vías, que permite usar una u otra, o dos a la vez. También tienen un control de volumen y otro de tono.

Alma del Mástil (Varilla Tensora)
Esta las llevan todas las guitarras de cuerdas de acero y se encuentra a lo largo del Mástil, debajo del Diapasón. Esta compensa la curvatura provocada por la tensión de las cuerdas. La varilla se ajusta por medio de una tuerca hexagonal que se encuentra en el extremo más próximo a la caja o del otro extremo del Mástil (en el clavijero - este extremo es ocultado por la Tapa del Alma, que es de madreperla o de algún material sintético).

Golpeador Protegen el acabado de la guitarra y esta colocado en la parte media baja de la guitarra (suele ser de concha de tortuga sintética).
La Afinación

Este es uno de los aspectos más difíciles e importantes para el que comienza a estudiar la guitarra, la afinación. Es importante que tu guitarra este afinada, por el simple hecho de que te será imposible aprender a tocarla sino lo esta.

Nota que debe dar cada cuerda de la Guitarra

Antes de empezar a aprender los diferentes métodos de afinar la guitarra, tenemos que conocer que nota debe dar cada cuerda: La cuerda superior (la más gruesa de todas, también llamada 6ta. cuerda) debe dar la nota Mi, las notas de las cuerdas siguientes son La, Re, Sol, Si y la cuerda inferior (la más delgada de todas, también llamada 1ra. cuerda) también al igual que la sexta cuerda debe dar la nota de Mi, pero más aguda claro está.

Esa afinación es la estándar, ya que una guitarra puede estar afinada de diferentes formas.

Método básico de Afinación

Aflojas la sexta cuerda hasta que no dé ningún sonido, y luego la irás subiendo (apretando) muy despacio hasta que dé un sonido claro sin subirla mucho; en ésta disposición se considerará ya afinada la sexta, pasamos entonces a afinar la 5ta. cuerda que después de aflojarla como se hizo con la anterior la irás subiendo muy poco a poco hasta que ésta cuerda tocada al aire (es decir, sin que la pise la mano izquierda) produzca el mismo sonido que el de la sexta cuerda pisada en el 5to. traste. Ya afinada la quinta se procederá sucesivamente a la afinación de las demás cuerdas de acuerdo a la tabla siguiente:

* La cuerda 6ta. pisada en 5to. traste da el sonido que corresponde a la 5ta. al aire.
* La cuerda 5ta. pisada en 5to. traste da el sonido que corresponde a la 4ta. al aire.
* La cuerda 4ta. pisada en 5to. traste da el sonido que corresponde a la 3ra. al aire.
* La cuerda 3ra. pisada en 4to. traste da el sonido que corresponde a la 2da. al aire.
* La cuerda 2da. pisada en 5to. traste da el sonido que corresponde a la 1ra. al aire.

Este método puede ser utilizado en cuanto se tenga un oído musical o un oído entrenado, ya que no teniéndolo puede resultar tardado o incluso molesto, o en todo caso en cuando lo hagamos por entrenamiento de nuestro oído.

La Tablatura - Estructura y Pisadas

La tablatura es un método de representar la música por medio de diagramas que muestran al intérprete dónde poner los dedos en el diapasón del instrumento, en lugar de señalar el sonido y el ritmo que se producen como ocurre en la partitura.

Estructura de la Tablatura

Está integrada por 6 líneas que representa las seis cuerdas de la Guitarra. La línea de arriba representa la primera cuerda, o la más delgada de la Guitarra, mientras que la línea de abajo representa la sexta, o la más gruesa de la Guitarra. Una línea vertical indica el principio o final de un compás y la doble línea vertical indica el final de la tablatura. Como se puede ver en el ejemplo:

1ra. cuerda e |----------------------------------||
2da. cuerda B |----------------------------------||
3ra. cuerda G |----------------------------------||
4ta. cuerda D |----------------------------------||
5ta. cuerda A |----------------------------------||
6ta. cuerda E |----------------------------------||

Esta es la cuerda más gruesa

Las letras e, B, G, D, A y E indican el nombre de la nota que produce la cuerda tocada al aire, de la más delgada a la más gruesa. La 'e' minúscula es la nota de Mi pero más aguda (dos octavas más). A veces se ven éstas letras en las tablaturas y otras veces no. La razón de que no las lleva es que esta es la afinación estándar y se da por entendido que es de esta forma.

Las Pisadas

Los números que encontremos sobre cada línea indican el espacio en donde se debe pisar la cuerda con los dedos de la mano izquierda, y tocarla con la mano derecha. Por ejemplo, si el número 3 ésta sobre la 2da. línea, significa que debemos tocar (hacer sonar) la 2da. cuerda pisada en el 3er. espacio (o traste). El "0" (cero) indica que se debe tocar la cuerda al aire (sin pisarla).

|-----------------------------------------||
|-------3---------------------------------||
|-----------------------------------------||
|-----------------------------------------||
|-----------------------------------------||
|-----------------------------------------||

Cuando se presente un número fuera de la tablatura (generalmente abajo), en este caso el 2, indica con cual dedo de la mano izquierda debe ser presionada la posición que te indica en la tablatura.

El número 1 indica el dedo índice de la mano izquierda.
El número 2 indica el dedo medio de la mano izquierda.
El número 3 indica el dedo anular de la mano izquierda.
El número 4 indica el dedo meñique de la mano izquierda.

Cuando se quiere que dos o más cuerdas suenen al mismo tiempo se ponen los números en vertical, de ésta forma:

|-----------------------------------------||
|-----------1-----------------------------||
|-----------0-----------------------------||
|-----------2-----------------------------||
|-----------3-----------------------------||
|-----------------------------------------||

La siguiente tablatura te indica que debes tocar una secuencia de notas, en esta caso la escala de Do mayor. Las notas son Do, Re, Mi, Fa, Sol, La, Si y Do (C, D, E, F, G, A, B, C):

|-----------------------------------------||
|------------------------------0---1------||
|----------------------0---2--------------||
|----------0---2---3----------------------||
|------3----------------------------------||
|-----------------------------------------||

Cuando se presentan números fuera de la tablatura (generalmente abajo), indican con que dedos de la mano izquierda deben ser presionadas las posiciones que te indica la tablatura. El número 1 indica el dedo índice, el 2 el dedo medio, el 3 el dedo anular y el 4 el dedo meñique.

Ahora, en la siguiente tablatura ya no sólo te indica que notas debes tocar, sino también con que dedo de la mano izquierda debes pisar cada una de ellas. La siguiente secuencia de notas pertenece a la escala de Re mayor:

|--------------------------0--2--3--5--7--9--10--||
|-----------------0--2--3------------------------||
|-----------0--2---------------------------------||
|--0--2--4---------------------------------------||
|------------------------------------------------||
|------------------------------------------------||

La Duración de Sonido

Este es el aspecto donde difiere más con la partitura. La mayoría de las tablaturas no te dan información sobre la duración de las notas, aunque esto no es de vital importancia

Pero, si es posible intentar algo. En los ejemplos anteriores los números están separados en iguales distancias entre si, así que podemos asumir que todas las notas tienen la misma duración de sonido. El espacio entre los números te indicará cual nota dura más que otra. En los ejemplos siguientes notarás el buen objetivo de separar los números según la duración de cada nota:

Cielito Lindo

|--------------------------------------------------------------|
|--1--1--------0-----1--1--------0-----1--1--------0-----------|
|--------2--------0--------2--------0--------2--------0--------|
|--------------------------------------------------------3--0--|
|--------------------------------------------------------------|



Tablaturas


Himno de la alegria

De la Novena Sinfonía de Beethoven


|-0--0--1--3--|-3--1--0-----|----------0--|-0-----------|-0--0--1--3--|
|-------------|----------3--|-1--1--3-----|-----3-3-----|-------------|
|-------------|-------------|-------------|-------------|-------------|
|-------------|-------------|-------------|-------------|-------------|
|-------------|-------------|-------------|-------------|-------------|
|-------------|-------------|-------------|-------------|-------------|


|-3--1--0-----|----------0--|-------------|-------0-----|----0-1-0----|
|----------3--|-1--1--3-----|-3---1-1-----|-3--3-----1--|-3---------1-|
|-------------|-------------|-------------|-------------|-------------|
|-------------|-------------|-------------|-------------|-------------|
|-------------|-------------|-------------|-------------|-------------|
|-------------|-------------|-------------|-------------|-------------|


|----0-1-0----|-------------|-0--0--1--3--|-3--1--0-----|----------0--|
|-3---------3-|-1--3--------|-------------|----------3--|-1--1--3-----|
|-------------|-------0-----|-------------|-------------|-------------|
|-------------|-------------|-------------|-------------|-------------|
|-------------|-------------|-------------|-------------|-------------|
|-------------|-------------|-------------|-------------|-------------|


|-------------||
|-3---1-1-----||
|-------------||
|-------------||
|-------------||
|-------------||


SOLAMENTE UNA VEZ - Agustín Lara

Tonalidad: La mayor



|--0--2--0-------------------0----2--0--------2--4--2---------2----5--4--|
|----------------0--2-----2-----------------------------0--0-------------|
|-------------2-------------------------1--------------------------------|
|------------------------------------------------------------------------|
|------------------------------------------------------------------------|
|------------------------------------------------------------------------|





|--0---------5--5--5---4--4--4---2--2--2---0----0--2---------0-----------|
|------2-----------------------------------------------2--3--------------|
|----------------------------------------------------------------1-------|
|------------------------------------------------------------------------|
|------------------------------------------------------------------------|
|------------------------------------------------------------------------|





|--0--0--0-----------------------------0---2--0---2---5-----------------||
|------------3--3--3---2--2--2---0--------------------------------------||
|-----------------------------------------------------------------------||
|-----------------------------------------------------------------------||
|-----------------------------------------------------------------------||
|-----------------------------------------------------------------------||


CIELITO LINDO - Quirino Mendoza y Cortés

Tonalidad: Re mayor



|-----------------|-----------------|-----------------|-----------------|
|--3----3----0----|-------2---------|--3----3----0----|-------2---------|
|-----------------|------------2----|-----------------|------------2----|
|-----------------|-----------------|-----------------|-----------------|
|-----------------|-----------------|-----------------|-----------------|
|-----------------|-----------------|-----------------|-----------------|



|-----------------|-----------------|-----------------|-----------------|
|--3----3----0----|-------2---------|-----------------|-----------------|
|-----------------|------------2----|--0--------------|-----------------|
|-----------------|-----------------|-------2---------|-----------------|
|-----------------|-----------------|-----------------|-----------------|
|-----------------|-----------------|-----------------|-----------------|




|-----------------|-----------------|-----------------|-----------------|
|--2----2----2----|-------0---------|-----------------|-----------------|
|-----------------|------------2----|--0----0---------|------------0----|
|-----------------|-----------------|------------2----|-------4---------|
|-----------------|-----------------|-----------------|-----------------|
|-----------------|-----------------|-----------------|-----------------|




|-----------------|-----------------|-----------------|----------------||
|-----------------|-----------------|-----------------|----------------||
|--2----2----2----|-------0---------|-----------------|----------------o|
|-----------------|------------4----|--2----0---------|----------------o|
|-----------------|-----------------|-----------------|----------------||
|-----------------|-----------------|-----------------|----------------||




||-2--------------|--0--------------|-----------------|-----------------|
||----------------|------------3----|--0--------------|-----------------|
|o----------------|-----------------|-----------------|-----------------|
|o----------------|-----------------|-----------------|-----------------|
||----------------|-----------------|-----------------|-----------------|
||----------------|-----------------|-----------------|-----------------|



|--0--------------|--0--------------|--2--------------|-----------------|
|-----------------|------------3----|-------3---------|-----------------|
|-----------------|-----------------|-----------------|------------2----|
|-----------------|-----------------|-----------------|-----------------|
|-----------------|-----------------|-----------------|-----------------|
|-----------------|-----------------|-----------------|-----------------|




|-----------------|-----------------|--3----3----0----|-----------------|
|--0--------------|--0----0---------|-----------------|--------2--------|
|------------2----|------------2----|-----------------|-------------2---|
|-----------------|-----------------|-----------------|-----------------|
|-----------------|-----------------|-----------------|-----------------|
|-----------------|-----------------|-----------------|-----------------|




|-----------------|-----------------|----------------||
|--0----0---------|-----------------|----------------||
|------------2----|--------0--------|----------------o|
|-----------------|-------------4---|--2----0--------o|
|-----------------|-----------------|----------------||
|-----------------|-----------------|----------------||
NOCHE DE PAZ

Tonalidad: La mayor



||--0---2--0----------0---2--0----------7----7---4----4---5----5----0-------|
||-------------2-----------------2------------------------------------------|
|o--------------------------------------------------------------------------|
|o--------------------------------------------------------------------------|
||--------------------------------------------------------------------------|
||--------------------------------------------------------------------------|




|--2---2--2---5--4--2--0---2--0---------2---2--2---5--4--2--0---2--0--------|
|---------------------------------2------------------------------------2----|
|---------------------------------------------------------------------------|
|---------------------------------------------------------------------------|
|---------------------------------------------------------------------------|
|---------------------------------------------------------------------------|




|--7---7--7---10---7---4---5---s---9------5----0-------0-------------------||
|--------------------------------------------------2--------3---0----------||
|--------------------------------------------------------------------2-----o|
|--------------------------------------------------------------------------o|
|--------------------------------------------------------------------------||
|--------------------------------------------------------------------------||




|-------0----5--------||
|--2------------------||
|---------------------||
|---------------------||
|---------------------||
|---------------------||

Gracias... eso es todo
Aruli123

Mas sobre mi:

guitarrafacilrapido