.:Tutorial para tocar la guitarra:.

Lo recomendable es que empieces con una guitarra acustica, y que despues que aprendas comiences a tocar la electrica.
Tampoco trates de avanzar muy rapido
Tambien recuerda: Primero eficacia y calidad, despues velocidad

Paginas con recursos:

www.lacuerda.net Pagina en español con tablaturas y acordes de canciones en español (De aqui saque las imagenes)
http://www.ultimateguitar.com Pagina en ingles con acordes y tablaturas de canciones en ingles y español (y creo que otros idiomas)

Bien el tuto empieza:


Materiales

-Una Guitarra (escencial xD)
-2 manos con 5 dedos cada una (tambien escencial xD)
-Puas, plumillas, uñas o como quieran decirles


Partes de la guitarra:

-Mastil o diapason
-Trastes
-Cejuela
-Clavijero
-Cuerdas (awebo)
-Cuerpo
-Boca
-Costados
-Puente



Cuidados de la guitarra


-Compra una funda, las hay rigidas y suaves
-Rigidas
-Protegen la guitarra de los golpes, humedad y tierra
-La desventaja es que son muy pesadas para cargarlas

-Suaves
-La protegen de humedad y tierra
-Son muy ligeras
-La desventaja es que no protege de golpes

-La humedad hace que la madera se hinche, deformando la guitarra.
-La tierra solo las ensucia
-Los golpes le puedan causar grietas, abolladuras, etc
-Para limpiar la guitarra se debe usar un trapo ligeramente humedo


Posiciones


-La guitarra se puede tocar sentado o de pie
-Para tocarla de pie se debe conseguir una correa (algunos la llaman Tahalí) para colgarte la guitarra. Se puede tocar sin correa, pero es mayor el riesgo de que se te caiga.

-La mano izquierda (o derecha si eres zurdo) se debe colocar en el mastil, el dedo pulgar detras de el y los cuatro dedos restantes enfrente para poder pisar las cuerdas. El dedo pulgar hace presion cuando se pisa una cuerda, y la presion se afloja para cambiar de nota o traste. La palma de la mano no debe tocar el mastil para dar mas libertad a los dedos.

.:Tutorial para tocar la guitarra:.

Cuerdas y afinacion

La guitarra tiene 6 cuerdas, que llevan su nombre por su posicion y grosor o por la nota que tocan al aire (sin pisarla)
Estas son:
-1era (la mas delgada)= Mi
-2da= Si
-3era= Sol
-4ta= Re
-5ta= La
-6ta (la mas gruesa)= Mi

Para afinar las cuerdas primero se debe afinar la 6ta (aflojandola o apretandola) hasta que de la nota Mi. Despues se siguen los siguientes pasos:
-La cuerda 6ta. pisada en 5to. traste da el sonido que corresponde a la 5ta. al aire.
-La cuerda 5ta. pisada en 5to. traste da el sonido que corresponde a la 4ta. al aire.
-La cuerda 4ta. pisada en 5to. traste da el sonido que corresponde a la 3ra. al aire.
-La cuerda 3ra. pisada en 4to. traste da el sonido que corresponde a la 2da. al aire.
-La cuerda 2da. pisada en 5to. traste da el sonido que corresponde a la 1ra. al aire.

La cuerda debe ser afinada hasta que suene igual que la cuerda anterior en el 5to traste. Por ejemplo, la 5ta cuerda (La) esta afinada hasta hasta que suene igual que la 6ta cuerda (Mi) presionada en el 5to traste

Tambien se puede afinar con un afinador electrico, que te dice si la cuerda esta o no afinada


Notas

En algunas paginas las notas aparecen en ingles (C, D, E...). Esta es una tabla que debes tratar de aprenderte de memoria:

Do= C
Re= D
Mi= E
Fa= F
Sol= G
La= A
Si= B

Tambien algunas notas tienen alguna letra o simbolo a un lado. Son distintas notas, pero basadas en la misma nota (Por ejemplo Rem, Re#, Reb, Re7, Rem7)

M= Menor
#= Sostenido (Medio tono arriba)
B= Bemol (Medio tono abajo)
7= Septimo
M7= Menor Septimo


Tablaturas

Aqui esta empezando lo interesante

e |-------------------------------------------------------1
B |------------------------------------------------------2
G |------------------------------------------------------3
D |------------------------------------------------------4
A |------------------------------------------------------5
E |------------------------------------------------------6

Esta es la base de toda tablatura. El numero indica que cuerda es

-Pisadas
e |-------------------------------------------------------
B |------------------------------------------------------
G |-----------------------0-------------------------------
D |-----3-------------------------------------------------
A |------------------------------------------------------
E |------------------------------------------------------

El numero 3 indica que la 4ta cuerda debe ser pisada en el 3er traste
el 0 indica que la cuerda debe ser tocada al aire (sin pisar)

e |-------------------------------------------------------
B |------------------------------------------------------
G |---- -------------------------------------------------
D |-----3-------------------------------------------------
A |-----2-------------------------------------------------
E |-----1-------------------------------------------------

Cuando los numeros estan en vertical significa que las cuerdas deben tocarse al mismo tiempo (rasguearse)

-Escala de Do mayor
e |-----------------------------------------------------------------------
B |--------------------------------------------------0----1-------------
G |---------------------------------0------2----------------------------
D |-----------0------2-----3-------------------------------------------
A |---3-----------------------------------------------------------------
E |----------------------------------------------------------------------
C D E F G A B C (mas agudo)


Acordes

Un acorde es cuando juntas varias notas y rasgueas todas las cuerdas. Para que suene bien hay que pisar bien las cuerdas hasta que toquen el mastil, y en el traste correcto. A continuacion las notas (en ingles) que yo considero mas basicas (hay muchas mas). En vertical es el traste y en horizontal las cuerdas.

-El punto negro es donde tienes que pisar
-El punto blanco significa que la cuerda va al aire
-La linea significa cejilla (explicacion mas adelante)
-La X significa que esa cuerda no debe ser rasgueada

Busca mas acordes aqui
guitarra

Cejilla

La cejilla es una tecnica para tocar acordes que consiste en pisar todas las cuerdas de un traste con el dedo indice. Un ejemplo es la nota F (Fa). Al principio no sonara muy bien, pero con la practica y la paciencia en poco tiempo lograras dominarla


Circulos armonicos

Los circulos armonicos siempre llevan las notas en el siguiente orden: -Mayor -Menor -Menor -Septima7
Se tocan con un rasgueo abajo, uno arriba y 2 mas abajo y al terminar vuelven a comenzar, pr eso les llaman circulos

A continuacion los circulos de las notas de la escala de Do

Sol - Mim - Lam - Re7
Do - Lam - Rem - Sol7
Re - Sim - Mim - La7
La - Fa#m - Sim - Do7
Mi - Do#m - Fa#m - Si7
Fa - Rem - Solm - Mi7
Si - Sol#m - Do#m - Fa#7


Bien eso fue todo. Si tienen alguna duda o creen que falto algo mandenme un MP
Y opinen bien me tarde toda la mugre tarde haciendolo

4 comentarios - .:Tutorial para tocar la guitarra:.

@Suzaku12369 -2
pone para surdos y +10 de motivacion...voy a ver en q post t sirven mas
@Gringo_metallica
Materiales -Una Guitarra (escencial xD) -2 manos con 5 dedos cada una (tambien escencial xD) -Puas, plumillas, uñas o como quieran decirles


un tipo toca y no tiene manos. toca con los piesES