Ejercicios para Mejorar la Habilidad de tus Dedos (Guitarra)

Tecnica Para Aumentar La Agilidad De Tus Dedos
(para guitarra)

Los ejercicios de digitacion pueden ser utiles de muchas maneras . No solo son buenos para precalentar , si no tambien para introducir nuevas tecnicas en tu vocabulario . Divirsificar es ascender . Cuanto mas sepas mejor . He aqui un ejercicio que se llama El relevo del acorde disminuido . Implica tocar acordes de septima disminuida en rapida sucecion arriba y abajo del diapason . Es un autentico Tuerce dedos .

Primero memoriza las voces de los acordes en el Ejercicio1 . Rasgea #1 y asegurate que suene bien , sin zumbidos ni cuerdas al aire . Luego con tu mano de rasgear , apaga las cuerdas . Mientras las cuerdas esten apagadas pisa el acorde #2 . Una vez lo hayas hecho , rasgea como lo has hecho en el primer acorde . Muevete al #3 , #4 y ñuego regresa #3 , #2 y , finalmente , a #1 , siempre utilizando la misma rutina rasgueo-apagado-cambiar . Despues que lo hayas conseguido , repite el ejercicio un semitono (un traste) mas alto . Asegurate de mantener la misma relación interválica entre cada uno de los acordes y recuerda empezar lentamente , y desarrollar primero la cordinación . Esto es , calidad antes de velocidad , cada vez .

Como variación prueba con la diferencia que se muestra en el Ejercicio2 . Arpegiar cada acorde con las cuerdas apagadas . Un estilo de rasgueo que funciona bien , en esta situación es el abajo-arriba-arriba-arriba .

El Relevo de Acorde disminuido es un exelente ejercicio para desarrollar Dedos Agiles , Mientras estos permanescan desafientas en TU tecnica . Asi cuando se convierta en facil hazla dificil , si se ase aburrida hazla interesante . Y no olvides oir el sonido de los acordes . Usados creativamente , los acordes didminuidos pueden hacer lo que otros acordes no pueden . Experimenta y descubriras que es así.

Ejercicios para Mejorar la Habilidad de tus Dedos (Guitarra)guitarra
dedosmejorar


Tecnicatab


Para los que no saben como leer una tablatura (Tab) .

Como leerla :

Bueno , la tablatura se compone de seis líneas horizontales que representan las seis cuerdas de la guitarra, la línea de arriba es la 1ª cuerda y la última línea es la 6ª:

e------------------------------primera cuerda
B-----------------------------segunda cuerda
G-----------------------------tercera cuerda
D-----------------------------cuarta cuerda
A-----------------------------quinta cuerda
E-----------------------------sexta cuerda



En estas líneas estaran unos números que muestran el traste que se tiene que pulsar:

e----1-------------------------
B------------------------------
G-------3----------------------
D----------5-------------------
A------------------------------
E------------------------------

Esto quiere decir que debes comenzar el punteo de guitarra pulsando la cuerda primera(e) en el traste 1, después sigue la cuerda tercera(G) en el traste 3, después sigues la cuerda cuarta(D) en el traste 5.
Si encuentras un 0 en la tablatura te esta indicando que la cuerda hay que tocarla sin pulsarla.

Fuente:


Joe Satriani , Secretos para mi técnica de guitarra

libro
Este es un libro que me compre ase poco , bueno me ha dado buenos resultados y he decidido postearlo (escribiendo y escaneando las imágenes necesarias) . Si me va bien seguiré posteando las siguientes paginas.


(Cualquier imagen que se caiga solo avísenme para subirla de nuevo)

14 comentarios - Ejercicios para Mejorar la Habilidad de tus Dedos (Guitarra)

@_Tecla_
Bien ahí, todo lo que sea de música está bien recibido
toco bajo y piano, espero que subas alguno pronto
@fernandez_franc
Te doy mis puntos de hoy porque no se a quien darselos... XD
@Vortex_ics
Oh es el gran maestro joe satriani

Pasame esa revista!! !!!!
@uzura
muchas gracias! me ha servido para mejorar mi agilidad
soy novata , no te puedo dar puntos...
pero de veras, GRACIAS!!!
@yeyo23
buen aporte te dejo +5
@afanon
(Cualquier imagen que se caiga solo avísenme para subirla de nuevo)
@el_capo_del_sur
afanon dijo:
(Cualquier imagen que se caiga solo avísenme para subirla de nuevo)
@jeancaa1
Ejercicio 1:

El ejercicio por excelencia de calentamiento, fuerza y sincronización de todos los dedos de la mano izquierda:

e-------------------------------------------------1-2-3-4-
B----------------------------------------1-2-3-4----------
G-------------------------------1-2-3-4-------------------
D-------------------1-2-3-4-7-----------------------------
A----------1-2-3-4----------------------------------------
E-1-2-3-4-------------------------------------------------

e-4-3-2-1-------------------------------------------------
B----------4-3-2-1----------------------------------------
G-------------------4-3-2-1-------------------------------
D----------------------------4-3-2-1----------------------
A-------------------------------------4-3-2-1-------------
E----------------------------------------------4-3-2-1----
Ejercicio 2:

Este ejercicio puede practicarse (debe practicarse…) de dos formas, la primera es con la siguiente digitación:

1-3 1-3 1-3 1-3 ….

Para cada cuerda, la primera nota se pulsa con el dedo Índice y la segunda con el Anular.

La otra forma es hacerlo con la siguiente digitación, os resultará mucho más complicado pero merece la pena:

2-4 2-4 2-4 2-4 2-4 ….

Para cada cuerda, la primera nota se pulsa con el dedo Corazón y la segunda con el Meñique.

e-------------------------------------5--7------
B-------------------------------5--7------------
G------------------------5--7-------------------
D------------------5--7-------------------------
A-----------5--7--------------------------------
E----5--7---------------------------------------

e-7---5------------------------------------------
B---------7---5----------------------------------
G-----------------7---5--------------------------
D-------------------------7---5------------------
A---------------------------------7---5----------
E----------------------------------------7---5---
Ejercicio 3:

Este ejercicio es de los más duros, pudiera llamarse el “rompe dedos” así que tened cuidado, en el momento que notéis cualquier tipo de molestia o dolor en los dedos parad inmediatamente. El dedo Meñique es siempre el que menos fuerza tiene y el que más cuesta hacer trabajar.

La digitación es 3-4 3-4 3-4, es decir, la primera nota de cada cuerda con el Anular y la siguiente con el Meñique:

e-------------------------------------6--7------
B-------------------------------6--7------------
G------------------------6--7-------------------
D------------------6--7-------------------------
A-----------6--7--------------------------------
E----6--7---------------------------------------

e-7---6------------------------------------------
B---------7---6----------------------------------
G-----------------7---6--------------------------
D-------------------------7---6------------------
A---------------------------------7---6----------
E----------------------------------------7---6---

A partir de aquí, todos podréis crear vuestros propios ejercicios con distintas digitaciones, es cuestión de ir trabajado los dedos en grupos, por separado, etc, otra por ejemplo que se me ocurre es la de digitación 1-4 1-4 1-4 ….


e--------------------------------------4--7-----
B-------------------------------4--7------------
G------------------------4--7-------------------
D------------------4--7-------------------------
A-----------4--7--------------------------------
E----4--7---------------------------------------

Y así sucesivamente, espero que os sean de utilidad los ejercicios.
@OrionG3
Viejo, el post tenía imagenes de los ejercicios y no eran esos, eran mas complejos, pero se perdieron en los hosts del mas allá... xd, Gracias de todos modos pero el post tiene años y no lo voy a actualizar por que el libro no lo tengo. ty