ejercicios- escalas- pentanonicas de  guitarra
bueno taringeros aqui les dejo unos ejercicios, escalas y pentatonicas que espero y le sirvan de mucho

EJERCICIOS:
esto te servira tanto para agarrar velocidad como para independizar dedos
es recomendable hacer estos ejercicios por lo menos 15 minutos antes de empezar a tocar algunos tomara tiempo pero ten paciencia solo pratica. practica y practica

1-
e -1-2-3-4 bajar y correr un traste y luego subir hasta el traste doce

2-
e -4-3-2-1 bajar y correr un traste y luego subir hasta el traste doce

3-
e -------------------------1-2----------------------
b --------------------1-2------1-2------------------
g ---------------1-2---------------1-2--------------
d ----------1-2------------------------1-2----------
a -----1-2---------------------------------1-2------
E -1-2-----------------------------------------1-2--

4-
e -------------------------1-3----------------------
b --------------------1-3-----1-3------------------
g ---------------1-3---------------1-3--------------
d ----------1-3------------------------1-3----------
a -----1-3---------------------------------1-3------
E -1-3-----------------------------------------1-3--

5-
e -------------------------2-4----------------------
b --------------------2-4-----2-4------------------
g ---------------2-4---------------2-4--------------
d ----------2-4------------------------2-4----------
a -----2-4---------------------------------2-4------
E -2-4-----------------------------------------2-4--

6-
e -------------------------3-4----------------------
b --------------------3-4-----3-4------------------
g ---------------3-4---------------3-4--------------
d ----------3-4------------------------3-4----------
a -----3-4---------------------------------3-4------
E -3-4-----------------------------------------3-4--

SPIDER
es uno de los mejor ejercicios un poco dificil de dominarlo pero sirve de demasiada ayuda
e--------------------------------------------------------------------------------3---4---1---2--
b-------------------------------------------------------------3---4---1---2---------------------
g------------------------------------------3---4---1---2----------------------------------------
d-----------------------3---4---1---2-----------------------------------------------------------
a----3---4---1---2------------------------------------------------------------------------------
E--1---2---3---4---1---2---3---4----1---2---3---4----1---2---3---4----1---2---3---4-----
DE VEREDAD LO MEJOR QUE PUEDE HABER EN EJERCICIOS EL SPIDER

eso es todo a cuanto ejercicios
guitarra

ESCALAS:
Escala de Do Mayor
Mi |--------------|----------------|---------------- ||
Si |--------------|----------------|---------------- ||
Sol|--------------|--------------2-|---4----5-------*||
Re |-------------2|----3----5------|----------------*||
La |---3----5-----|----------------|---------------- ||
Mi | --------------|----------------|---------------- ||
Do Re Mi Fa Sol La Si Do

Escala de Sol Mayor
Mi | -------------|----------------|---------------- ||
Si | -------------|----------------|---------------- ||
Sol|-------------|----------------|----------------*||
Re|-------------|--------------2-|---4----5-------*||
La|------------2|----3----5------|---------------- ||
Mi|--3----5-----|----------------|---------------- ||
Sol La Si Do Re Mi Fa# Sol

Escala de Re
Mi |--------------|------------------------------- ||-|
Si | --------------|------------------------------- ||-|
Sol|--------------|------------4----6----7--------*||-|
Re|-----------4--|--5----7-----------------------*||-|
La|-5----7-------|------------------------------- ||-|
Mi --------------|------------------------------- ||-|
Mi Fa# Sol La Si Do# Re Mi

Escala de La Mayor
Mi |-------------|----------------|---------------- ||
Si | -------------|----------------|---------------- ||
Sol|-------------|----------------|----------------*||
Re |-------------|----------------|4-----6----7----*||
La |-------------|4----5-----7----|---------------- ||
Mi |--5----7-----|----------------|---------------- ||
La Si Do# Re Mi Fa# Sol# La

Escala de Mi Mayor
Mi | -------------|----------------|---------------- ||
Si | -------------|----------------|---------------- ||
Sol|-------------|--------------6-|---8----9-------*||
Re |------------6|----7----9------|----------------*||
La | --7----9-----|----------------|---------------- ||
Mi | -------------|----------------|---------------- ||
Mi Fa# Sol# La Si Do# Re# Mi

Escala de Si Mayor
Mi | --------------|----------------|---------------- ||
Si | --------------|----------------|---------------- ||
Sol|--------------|----------------|----------------*||
Re |--------------|-------------6--|--8----9--------*||
La | ------------6-|---7----9-------|---------------- ||
Mi | --7----9------|----------------|---------------- ||
Si Do# Re# Mi Fa# Sol# La# Si

Escala de Fa#
Mi | ---------------|-----------------|------------------ ||
Si | ---------------|-----------------|------------------ ||
Sol|---------------|---------------8-|---10----11-------*||
Re|--------------8-|----9----11------|------------------*||
La |---9----11-----|-----------------|------------------ ||
Mi | ---------------|-----------------|------------------ ||
Fa# Sol# La# Si Do# Re# Mi# Fa#

Escala de Do#
Mi | --------------|-----------------|------------------ ||
Si | --------------|-----------------|------------------ ||
Sol|--------------|-----------------|------------------*||
Re |--------------|--------------8--|--10----11--------*||
La |------------8-|---9----11-------|------------------ ||
Mi |-9----11------|-----------------|------------------ ||
Do# Re# Mi# Fa# Sol# La# Si# Do#
velocidad


PENTATONICAS:

estas son elementales tanto para aprender como para crear solos
La escala pentatónica en la guitarra
Se utilizan habitualmente para aprender a tocar temas de blues en la guitarra y otros instrumentos musicales.

¿Como leer las tablaturas de guitarra?

La Do Re etc. son las notas.
1 4 1 etc. es la digitación sugerida.

Escala menor Pentatónica: Secuencia 1 (La Do Re Mi Sol)

La Do Re MiSol La DoRe Mi SolLa Do
1 4 1 3 1 3 1 3 1 4 1 4
-------------------------------5--8---------------
-------------------------5--8---------------------
-------------------5--7---------------------------
-------------5--7---------------------------------
-------5--7---------------------------------------
-5--8---------------------------------------------
(También puede empezarse en el traste 17)



Escala menor Pentatónica: Secuencia 2 (Do Re Mi Sol La)

Do Re Mi Sol La Do Re Mi Sol La Do Re
2 4 1 4 1 4 1 3 2 4 2 4
-----------------------------------8--10----------
----------------------------8--10-----------------
----------------------7--9------------------------
---------------7--10------------------------------
--------7--10-------------------------------------
-8--10--------------------------------------------
(También puede empezarse en el traste 20)



Escala menor Pentatónica: Secuencia 3 (Re Mi Sol La Do)

Re Mi Sol La Do Re Mi Sol La Do Re Mi
1 3 1 3 1 3 1 4 1 4 1 3
----------------------------------------10--12----
--------------------------------10--13------------
-------------------------9--12--------------------
-----------------10--12---------------------------
---------10--12-----------------------------------
-10--12-------------------------------------------



Escala menor Pentatónica: Secuencia 4 (Mi Sol La Do Re)

Mi Sol La Do Re Mi Sol La Do Re Mi Sol
1 4 1 4 1 3 1 3 2 4 1 4
-----------------------------------------12--15---
---------------------------------13--15-----------
-------------------------12--14-------------------
-----------------12--14---------------------------
---------12--15-----------------------------------
-12--15-------------------------------------------



Escala menor Pentatónica: Secuencia 5 (Sol La Do Re Mi)

Sol La Do Re Mi Sol La Do Re Mi Sol La
2 4 1 4 1 4 1 4 2 4 2 4
-----------------------------------------15--17---
---------------------------------15--17-----------
-------------------------14--17-------------------
-----------------14--17---------------------------
---------15--17-----------------------------------
-15--17-------------------------------------------
(También puede empezarse en el traste 3)

espero con gusto sugerencias, comentarios o dudas
con gusto los atendere