Como leer tablatura (principiantes)

Como Leer Una Tablatura


La tablatura, que abreviado se denomina TAB, es un método para escribir música para ser interpretada por instrumentos de cuerdas como la guitarra y el bajo.
Se utilizan letras (ASCII) y números , haciéndolo ideal para lugares como internet en donde cualquier persona puede tener acceso a un archivo de texto copiarlo y leerlo.
La tablatura es una representación del brazo de la guitarra por medio de seis lineas dispuestas de manera horizontal representando las cuerdas de la guitarra (si se trata de un bajo, seran cuatro lineas y asi con cualquier instrumento). A la izquierda, al principio de cada linea horizontal se colocan letras en cifrado americano que dicen las notas de cada cuerda y se deduce en que afinacion debemos tocar la tablatura, si no hay ninguna indicación se toma la afinación estandar. La cuerda mas aguda estara representada arriba de todo, es decir es la primera linea que se dibuja, en ocasiones la primera cuerda se dibuja con una "e" minúscula al lado.


e|-------------------------------------------------------------|
B|-------------------------------------------------------------|
G|-------------------------------------------------------------|
D|-------------------------------------------------------------|
A|-------------------------------------------------------------|
E|-------------------------------------------------------------|


Basicamente, la tablatura indica que nota se debe tocar en el lugar exacto (esta es la gran diferencia que existe con respecto a la partitura en donde uno debe deducir que digitación usar). Los numeros representaran el traste en el que esta ubicada la nota, en el caso de que diga 0 se tomará como una cuerda al aire.
Es importante saber que en un TAB no se indican la duración de las notas, es mejor conocer la canción para darte una idea de como tocarla. En ocasiones la duración puede deducirse segun la distancia que hay entre cada numero, por ejemplo si estan muy juntos el tema sera rápido. Tampoco te indicará que dedos debes utilizar para presionar las cuerdas.
Una tablatura puede verse mas o menos asi:


E----5----7--------------------------3-----7---------------------------
B----5----8---------------0-1------1-1-----5--------8--7-5-7--------2-3
G----5----7-------------2-----2----------5------------------------4----
D----7----9----7-9----2-----------------------------------------4------
A----7----10--------0-----------0-----------------------------2--------
E----5----7-----------------------------------8-7----------------------


Al principio puede resultar bastante complicado pero la tablatura requiere mucha menos dedicación que la partitura. Observa que cuando hay varios numeros uno encima de otro (como en el ejemplo) indicara que deben tocarse al mismo tiempo, representando un acorde. El TAB debe leerse al igual que cualquier texto, de izquierda a derecha.
La tablatura suele estar enriquezida por los distintos efectos que se pueden hacer con la guitarra:

BEND UP/DOWN
(Tensión Ascendente
/Descendente)


e|-------------------|
B|-------------------|
G|-----5b7b5---------|
D|-------------------|
A|-------------------|
E|-------------------|

Pulsa la nota de salida (aqui en el 5to traste) y tira de ella hasta conseguir la afinación de la nota que esta despues de la "b", para luego soltarla a la afincion inicial.

REPICK
(Pulsacion repetida)


e|-------------------|
B|-------------------|
G|-----5b7r7---------|
D|-------------------|
A|-------------------|
E|-------------------|

Has bend up a la afinación mostrada luego de la "b", entonces vuelve a pulsar la nota que esta posterior a la "r", mientras aguantas la tension de la cuerda a la afincación indicada

PRE-BEND
(Pulsación en tensión)


e|-------------------|
B|-------------------|
G|-------b7b5--------|
D|-------------------|
A|-------------------|
E|-------------------|


Tensiona la cuerda previamente hasta conseguir la afinación despues de la "b" (en este caso 7) y luego pulsa la nota para luego aflojar

HAMMER-ON
(Ligado Ascendente)


e|-------------------|
B|-------------------|
G|-------5h7---------|
D|-------------------|
A|-------------------|
E|-------------------|

Pulsa en el 5to traste, entonces has sonar otra nota en el 7mo traste con la mano en el diapasón sin pulsar nuevamente.

PULL-OFF
(Ligado Descendente)


e|-------------------|
B|-------------------|
G|-------7p5---------|
D|-------------------|
A|-------------------|
E|-------------------|

presiona la nota en el 7mo traste, y ademas el 5to con otro dedo (sobre la misma cuerda), entoncestira del dedo hacia arriba para que suene la nota inferior

SLIDE
(Glissando)


e|-------------------|
B|-------------------|
G|-------7s5---------|
D|-------------------|
A|-------------------|
E|-------------------|

Pulsa la nota del septimo traste luego desliza el dedo abajo hacia el quinto sin pulsar nuevamente, esto puede hacerse de manera invertida tambien, en ocasiones los slides se representan con / o \ segun sean ascendente (el primero) o descendente (el segundo)

FRETBOARD MUTES
(Apagados de diapasón)

e|-----------------------|
B|--6--x--x--x--6--x--x--|
G|--7--x--x--x--7--x--x--|
D|--6--x--x--x--6--x--x--|
A|--7--x--x--x--7--x--x--|
E|-----------------------|

Las notas marcadas con x debieran ser apagadas usando los dedos de la mano que pulsa en el diapasón.

PALM MUTES
(Apagados)


e|-----------------------|
B|--6-----------6--------|
G|--7-----------7--------|
D|--6-----------6--------|
A|--7-----------7--------|
E|-----0--0--0-----0--0--|
PM PM PM PM PM

Apagados hechos reposando la mano que pulsa sobre las cuerdas cerca del puente, es decir utilizando la palma de la mano derecha (izquierda si eres zurdo)

VIBRATO
(Vibración)
e|-------------------|
B|-------------------|
G|----12~------------|
D|-----------14~-----|
A|-------------------|
E|-------------------|

Vibra la nota con la mano que esta sobre el diapasón, normalmente con un leve movimiento ascendente y descendente. Tambien se puede hacer con la palanca y de manera exagerada. Puede representarse tambien con una "v" OTROS

SIMBOLOS
() = Nota que sigue sonando, pero sin volver a tocarla.
N.C. = Sin acorde(s).
t (tapping) = Usar dedo(s) de la mano derecha para pulsar cuerda.
H = Harmónico. Se toca la cuerda rozándola.
AH = Harmónico artificial. Se toca la nota y con la yema del dedo se corta el sonido haciéndolo más agudo.


fuente

Comentarios Destacados

@baco +12
lo agrego a favoritos.. después le pego una leída...

50 comentarios - Como leer tablatura (principiantes)

@baco +12
lo agrego a favoritos.. después le pego una leída...
@diezezequiel +1
idem=igual, identico, se refiere a que piensa igual que baco
@nacho85 +2
17 favoritos y ni un punto te dieron? q miselables!!! yo on tengo sino te tiraba un par
@baco +1
nacho85...

yo tiro los puntos cuando están buenos.. no por el simple hecho de mandarlo a favoritos...



es mas recién lo termine de leer.. y esta piola.. había varias cosas que no sabia...



+5
@Angus77 -4
muy bueno,yo les dejo un megapost con videos para el que le interese el tema aca:http://www.taringa.net/posts/tv-peliculas-series/970362/Megapost-Guitar-Video-Lessons.html
@SAANTTIAGOO +3
esto lo sacas lacuerda.com

jajaj
@flasherisimo -4
baco dijo:lo agrego a favoritos.. después le pego una leída...
@UbuntU92 +1
gracias, yo recien estoy empesando con esto de la guitarra, y me ayuda un montonaso esto master, te dejo los ultimos 5 puntos que me quedan. Saludos
@emmanuel1718 -2
+10......mira mi post!!.....http://www.taringa.net/posts/musica/5967928/un-poco-de-utilidades-para-musicos!__.html
@grego9 +1
gracias che, me ayudo bastante
@deiv79
baco dijo:lo agrego a favoritos.. después le pego una leída...
@Danielchv95
no entendi una mierda... pero te dejo 5
@Ylonen +1
muy bueno, aunque hay conceptos que los principiantes no conocemos
@erechel
che, buscando tablaturas para principiantes me encontré con algo rarísimo:
e|------------------------------------------------------|
B|------------------------------------------------------|
G|------------------------------------------------------|
D|-------------------------------12h14-------12---------|
A|--12h14---12h14---12h14--12h14-------12h14----14------|
E|--12------12------12----------------------------------|

12? 14? El traste catorce está sobre la tapa de la guitarra! Si me sacás la duda te dejo 10 hoy 10 mañana
@hae96 +2
y es por eso que estoy desesperado por una electrica. soloooos
@alenoguerol -2
lo que buscaba, necesitaba saber lo que significaba la h y la b en las tablaturas
a sacarle filo a la puaa !!
+10
@lulululucascarajo +1
Madera dijo:
erechel dijo:che, buscando tablaturas para principiantes me encontré con algo rarísimo:
e|------------------------------------------------------|
B|------------------------------------------------------|
G|------------------------------------------------------|
D|-------------------------------12h14-------12---------|
A|--12h14---12h14---12h14--12h14-------12h14----14------|
E|--12------12------12----------------------------------|

12? 14? El traste catorce está sobre la tapa de la guitarra! Si me sacás la duda te dejo 10 hoy 10 mañana

Sí, normalmente en la criolla, el 12 está justo donde comienza la tapa de la viola, el catorce está lógicamente dos más a la derecha. Para tocarlo con comodidad necesitás una acústica o una eléctrica donde, por la forma de la viola, llegás bien. Espero que me haya explicado bien.




si inclinas un poquito el brazo para la izquierda llegas bien !
@soy_xeneixe
Gracias!muy útil y completo...estaba buscando una explicación así.
a Fav,reco, +10.
@river3010 -1
+10 amigo!! muy util.. a favoritos
@Maty587
muy bueno! te dejo + 10
@Le4nDr0W -6
Peor me confundeci...
@asikin
acabo de aprender cosas que no sabia D: . van 10
@Zucker
y caundo ay 2 numeros en una misma line por ejemplo E|--------68----------- como es??
@Zucker +1
Madera dijo:
Zucker dijo:y caundo ay 2 numeros en una misma line por ejemplo E|--------68----------- como es??


Si no es accidental, se tocan seguidos o sea tocás el 6 y después el traste 8 inmediatamente. Salvo que diga por ej 23, porque hay un traste 23 en la guitarra si dice 10 lo mismo jajaj. Saludos.

ok grax men
@DeltaSky075
Ah muchas gracias bro, sirve bastante
@Diiego09 +1
Como haces para tocar todas las notas al mismo tiempo? Por ejemplo cuando esta una arriba de la otra!
@Diiego09 +6
Madera dijo:
Diiego09 dijo:Como haces para tocar todas las notas al mismo tiempo? Por ejemplo cuando esta una arriba de la otra!

¿Que tenés un solo dedo? usá todos los dedos!


Si ya se, pero debe existir una tecnica!
@neoyop +2
Diiego09 dijo:
Madera dijo:
Diiego09 dijo:Como haces para tocar todas las notas al mismo tiempo? Por ejemplo cuando esta una arriba de la otra!

¿Que tenés un solo dedo? usá todos los dedos!


Si ya se, pero debe existir una tecnica!

uhh loco no conoces lo que es un acorde??...a favoritos despues lo leo
@atiendo-boludos +2
Que grande @Madera tenés mas años en taringa, que la suma de los años de Susana Gimenez y Mirtha Legrand.
@mr_el_fer +1
buenisimo! estaba re perdido con las tabs de lacuerda.net
@PatooGianini
Una duda.
encontré una tablatura que tiene esto
E|-------------------------------------------------------------|
B|-------------------------------------------------------------|
G|------11-11~-------11-11~-----7-7-6?--6h7p6--9-7?--6h7-------|
D|-9-9~---------9-9~-------------------------------------------|
A|-------------------------------------------------------------|
E|-------------------------------------------------------------|
El signo de pregunta no se que es
@Madera
Un error de tipeo jajaj
@tiqui107
en una tablatura encontre esto: e|-----------------9----------------9p7---------7--9---7p5------|
B|-----------------9---------------------7------7--7---5--------|
G|------------9----11p9--------------------8----8--8---6----6---|
D|-----9------9-----------11----------------9--9--9---7----7---|
A|-----9h11-----------------------------------------------------|
E|--0---------------------------5/7-----------------------------|

Como hago el ''11/'' pls ayuda :C
@NarakuNya
Veo esto y me quiero suicidar , no lo entiendo.
|--------------------------|----------------------------------------------------------|
|--------------------------|----------------------------------------------------------|
|-7~-------3~------2~------|-7777-7777-77777777-7777-77773333-3333-33332222-2222-2222-|
|-x-(x32)--x-(x16)-x-(x16)-|-xxxx-xxxx-xxxxxxxx-xxxx-xxxxxxxx-xxxx-xxxxxxxx-xxxx-xxxx-|
|-5~-------1~------0~------|-5555-5555-55555555-5555-55551111-1111-11110000-0000-0000-|
|--------------------------|----------------------------------------------------------|
@radamantis66
facil capo tal vez ya lo hayas deducido pero 7x5 (x32) significa que toques 32 veces esas dos notas y como estan descriptas una arriba de otra quiere decir que se tocan a la vez