tablaturas fáciles para guitarra acustica

este es mi primer post asi que si me confundo perdonen

acá les traigo un par de temas buenos para la guitarra criolla


clacico tono de payada

e---------------------------------------------------------------
B---------------------------------------------------------------
G---------------------------------------------------------------
D---------------------------------------------------------------
A------3--2-------3--2-----3--2-----3--2---0--------------
E--0----------0----------2---------2---------------3--2--0--
<----------Se repite dos veces--------->/<---remate--->

INSPECTOR GADGET
1|------------------------------------------
2|---------------------------------------3-2
3|----------------------------------4-3-----
4|------0-2-4--0-3---2-0------0-2-4---------
5|--2-4------------4-----2-4----------------
6|------------------------------------------

el padrino:

1|--0-3-2-0-3-0-2-0-------0-3-2-0-3-0-2-0----------
2|-0---------------1-3-0-0---------------0---------
3|-------------------------------------------3-2-0-
4|-------------------------------------------------
5|-------------------------------------------------
6|-------------------------------------------------

crazy train de ozzy obsoure:

e|-----------------------------------------------------------
B|-----------------------------------------------------------
G|-----------------------------------------------------------
D|-----------------------------------------------------------
A|--------4-----5-----4-----2-----------2--------------------
E|---2--2----2-----2-----2-----5--4--5-----5--4--0-----------


smoke on water de deep purple:

0-3-5-0-3-6-5-0-3-5-3-0(en cualq cuerda suena bn en cualq cuerda )

este tema se toca de muchas maneras les dejo la mas facil.



esta en un poco complicada es una bace de blues


|--------------------------------|------------------|-3-0---------------0------------
|--------------------------------|------------------|-------3--0------3---3----------
|--------------------------------|-2-2-4-4-2-2-4-4--|-------------3-4-------2-0------
|---------------2-2-4-4-2-2-4-4--|-0-0-0-0-0-0-0-0--|----------------------------2---
|---------------0-0-0-0-0-0-0-0--|------------------|--------------------------------
|--------------------------------|------------------|--------------------------------

esta se puede tocsr en tres notas distibtas

BASE EN SOL
e ------------------------------------|
B ------------------------------------|
G ------------------------------------|
D -------2-3-2-----------2-3-2--------|
A ---2-5-------5-2---2-5-------5-2----|
E -3---------------3---------------3--|

BASE EN DO

e ------------------------------------|
B ------------------------------------|
G -------2-3-2-----------2-3-2--------|
D ---2-5-------5-2---2-5-------5-2----|
A -3---------------3---------------3--|
E ------------------------------------|


BASE EN RE
e ------------------------------------|
B ------------------------------------|
G -------4-5-4-----------4-5-4--------|
D ---4-7-------7-4---4-7-------7-4----|
A -5---------------5---------------5--|
E ------------------------------------|

o las 3 juntas
e ----------------------------------------------------|
B ----------------------------------------------------|
G -----------------------2-3-2-----------4-5-4--------|
D -------2-3-2-------2-5-------5-2---4-7-------7-4----|
A ---2-5-------5-2-3---------------5---------------5--|
E -3--------------------------------------------------|


“Fear of the dark” de Iron Maiden

|------0-1-||-3-1-0-----||----------||--------1---------||-------0--1--||--3-1-0------| aca se
|----3-----||--------1--||---1------||--1--1-----3------||-----3-------||---------1---|toca todo
|--2-------||-----------||-0---0-3--||------------------||--2----------||-------------| de nuevo
|----------||-----------||----------||------------------||-------------||-------------|
|----------||-----------||----------||------------------||-------------||-------------|
|----------||-----------||----------||------------------||-------------||-------------|

1ra parte de la intro de un for given de metallica


E|------------------------------| |-----------------------------|----------------------------|
B|-0------0------0----0----1----| |-0------0-----0----1----1----|-0------0-----1----1----1---|
G|----2-----2-----2----2----2---| |----2-----2----2----2----2---|----2----2-----2----2----2--|
D|------2-----2-----2----2----2-| |------2-----2----2----2----2-|------2----2----2----2----2-|
A|-0----------------------------| |-0---------------------------|-0--------------------------|
E|------------------------------|x4 |-----------------------------|----------------------------|x2

2 guitarra

E|-----------------|----------------|
B|-----------------|----------------|
G|-2--4—4/5--5-4-2-|-2--4—4/5---4—2-|
D|-----------------|----------------|
A|-----------------|----------------|
E|-----------------|----------------| x2

bob marley
Redemption Song

E|-------------------|-----------|---------||-------------------|----------|---------|
B|-------------------|-----------|---------||-------------------|----------|---------|
G|-------------------|-----------|---------||-------------------|----------|---------|
D|-----------0h2-O---|-------O---|---------||-----------0h2-O---|------O---|---------|
A|---O-2—-0h3------2-|--O-0h2--2-|-32-O---||---O-2—-0h3------2-|--O-2-----|-3-2-O---|
E|-3----3------------|-3---------|-------3-||-3----3------------|-3--------|-------3-|

donde aparece 0h2 hay que tocar la cuerda al aire y mientras esta sonando apretar la cuerda en el traste 2 para que suene dos notas en el mismo sonido esto se llama HAMMER-ON

Pink Floyd > Money parte 1

|--------------------|
|--------------------|
|----4---------------|
|------4-------------|
|--2-----2-----2-5b--|
|----------2-5-------|x7

parte 2

E|--------------------| |------------------| |--------------------|
B|--------------------| |------------------| |--------------------|
G|----4---------------| |------------------| |----4---------------|
D|------4-------------| |------------------| |------4-------------|
A|--2-----2-----2-5b--| |-2-5b-2-----2-5b--| |--2-----2-----2-5b--|
E|----------2-5-------|x3 |--------2-5-------| |----------2-5-------|

donde aparece 5b hay que tocar la cuerda 5ta en el traste 5 y hacerla para abajo esto se llama es BEND o BENDING

pink floid >wish you were here

e---------------------3-------------------3---|
B---------------------3-------------------3---|
G---------------------0-------0-----------0---|
D-------------0--2----2----2-----2--0-----0---| * 2
A------0h2------------0-------------------2---|
E---3-----------------x-------------------3---|




e---------------------3-------------------3---|
B---------------------3-------------------3---|
G---------------------0-------------------2---|
D-------------0--2----2----2--0-----------2---| * 2
A------0h2------------0----------2--0-----0---|
E---3-----------------x-------------------0---|

en esta el tambien esta el HAMMER-ON



encontre esta por casualidad esta muy buena

tetris
Parte 1
e|--0-----------------0-------------0--------|
B|----0-1-3-1-0-----1---3-1-0-0-1-3---1------|
G|--------------2-2---------------------2-2--|
D|-------------------------------------------|
A|-------------------------------------------|
E|-------------------------------------------|

e|----1-5-3-1-0---0-------------0------------|
B|--3-----------1---3-1-0-0-1-3---1----------|
G|----------------------------------2-2------|
D|-------------------------------------------|
A|-------------------------------------------|
E|-------------------------------------------|

e|--0-----------------0-------------0--------|
B|----0-1-3-1-0-----1---3-1-0-0-1-3---1------|
G|--------------2-2---------------------2-2--|
D|-------------------------------------------|
A|-------------------------------------------|
E|-------------------------------------------|

parte 2
e|--0--------------0---------0-5-4-----------|
B|----1-3-0-1----0---1-3-0-1-----------------|
G|-----------2-1-----------------------------|
D|-------------------------------------------|
A|-------------------------------------------|
E|-------------------------------------------|

e|----1-5-3-1-0---0-------------0------------|
B|--3-----------1---3-1-0-0-1-3---1----------|
G|----------------------------------2-2------|
D|-------------------------------------------|
A|-------------------------------------------|
E|-------------------------------------------|

e|--0--------------0---------0-5-4-----------|
B|----1-3-0-1----0---1-3-0-1-----------------|
G|-----------2-1-----------------------------|
D|-------------------------------------------|
A|-------------------------------------------|
E|-------------------------------------------|


15 comentarios - tablaturas fáciles para guitarra acustica

darkar0909
re bkn te pacaste pero no me gustaron mucho asi que +3
labecto -7
porkque los post e tablaturas de guitarra son siempre de metal?.... un poco de variedad no hace daño
Zarthes
debes especificar en tu busqueda y estas notas nisiquiera la mitad es metal
HHD_CORE
buen post man!! aguante el metal buenas bandas exceptuando metallica, las demas muy buenas saludos
cefiro05
Genial,es mi primera vez tocando guitarra solo me salio Smoke On The Water xD
alfr50 +1
te cimbiene copiar y pegar las tablaturas en un blog de notas en tu pc asi se ven como se deve... es que en taringa quedaron mal capas que por eso no te salen bien
pierodrossrivera
Muchas gracias amigo me hiciste recordar al tetris :,) gracias.