Mario Bros Intro Guitarra

MUY FACIL DE SACAR


--12-12-12-----12--15--------
------------13---------------
-------------------------12--
-----------------------------
-----------------------------
-----------------------------

|----------------------------------12--15-17--13-15--12-----------|
|-13-----------------12----------------------------------13-15-12-|
|------12--------14------15-14--12--------------------------------|
|-----------14----------------------------------------------------|
|-----------------------------------------------------------------|
|-----------------------------------------------------------------| x2

|-15-14-13-------------------------------15-14-13---------20--20-20-
|----------16--17--------13-----13-15-------------16--17------------
|------------------13-14-----14-------------------------------------
|-------------------------------------------------------------------
|-------------------------------------------------------------------
|-------------------------------------------------------------------

-15-14-13--------------------------------------------|
----------16--17--------13-----13-15----16---15---13-|
------------------13-14-----14-----------------------|
-----------------------------------------------------|
-----------------------------------------------------|
-----------------------------------------------------| x2

--------------------12-------------------------------12--
--13-13--13--13-15-----13-----------13-13--13--13-15-----
---------------------------14-12-------------------------
---------------------------------------------------------
---------------------------------------------------------
---------------------------------------------------------


--------------------12--------------12-12--12-----12--15--------
--13-13--13--13-15-----13----------------------13---------------
---------------------------14-12----------------------------12--
----------------------------------------------------------------
----------------------------------------------------------------
----------------------------------------------------------------


|----------------------------------12--15-17--13-15--12-----------|
|-13-----------------12----------------------------------13-15-12-|
|------12--------14------15-14--12--------------------------------|
|-----------14----------------------------------------------------|
|-----------------------------------------------------------------|
|-----------------------------------------------------------------| x2






|-12----------------13--13----------17--17-17-15--13-12-----------
|----13--------------------------12---------------------13--------
|--------12--13--14--------14-------------------------------14-12-
|-----------------------------------------------------------------
|-----------------------------------------------------------------
|-----------------------------------------------------------------

-12----------------13--13----------13--13-13-12------------------|
----13--------------------------12---------------15-13-----------|
--------12--13--14--------14-------------------------------------|
-------------------------------------------------------14--14----|
--------------------------------------------------------------15-|
-----------------------------------------------------------------| x2

--------------------12-------------------------------12--
--13-13--13--13-15-----13-----------13-13--13--13-15-----
---------------------------14-12-------------------------
---------------------------------------------------------
---------------------------------------------------------
---------------------------------------------------------

--------------------12--------------12-12--12-----12--15--------
--13-13--13--13-15-----13----------------------13---------------
---------------------------14-12----------------------------12--
----------------------------------------------------------------
----------------------------------------------------------------
----------------------------------------------------------------

--12----------------13--13----------17--17-17-15--13-12------------
-----13--------------------------12---------------------13---------
---------12--13--14--------14-------------------------------14-12--
-------------------------------------------------------------------
-------------------------------------------------------------------
-------------------------------------------------------------------

--12----------------13--13----------13--13-13-12-------------------
-----13--------------------------12---------------15-13------------
---------12--13--14--------14--------------------------------------
--------------------------------------------------------14--14-----
---------------------------------------------------------------15--
-------------------------------------------------------------------



|----------------------------------12--15-17--13-15--12-----------|
|-13-----------------12----------------------------------13-15-12-|
|------12--------14------15-14--12--------------------------------|
|-----------14----------------------------------------------------|
|-----------------------------------------------------------------|
|-----------------------------------------------------------------| x2

|-15-14-13-------------------------------15-14-13---------20--20-20-
|----------16--17--------13-----13-15-------------16--17------------
|------------------13-14-----14-------------------------------------
|-------------------------------------------------------------------
|-------------------------------------------------------------------
|-------------------------------------------------------------------

-15-14-13--------------------------------------------|
----------16--17--------13-----13-15----16---15---13-|
------------------13-14-----14-----------------------|
-----------------------------------------------------|
-----------------------------------------------------|
-----------------------------------------------------| x2


--------------------12-------------------------------12--
--13-13--13--13-15-----13-----------13-13--13--13-15-----
---------------------------14-12-------------------------
---------------------------------------------------------
---------------------------------------------------------
Esto es cuando se mete en un tunel
esta es mas fácil de sacar.

e|------------------------------------------|
B|------------------------------------------|
G|------------------------------------------|
D|---10----7----8--------------10----7----8-|
A|------------------------------------------|
E|-8-----5----6--------------8-----5----6---|

e|------------------------------------------|
B|------------------------------------------|
G|---10----7----8--------------10----7----8-|
D|------------------------------------------|
A|-8-----5----6--------------8-----5----6---|
E|------------------------------------------|

e|------------------------------------------|
B|------------------------------------------|
G|------------------------------------------|
D|-13-12-11-10------13-12-------11-10-------|
A|------------------------11-10-------------|
E|------------------------------------------|

e|------------------------------------------|
B|------------------------------------------|
G|----------15-14-13------------------------|
D|-16-15-14----------13---------------------|
A|----------------------14-13-12-11---------|
E|------------------------------------------|

16 comentarios - Mario Bros Intro Guitarra

yairozero
a fav a ver si la sako xd
my_silver2
No entiendo nada, pero bueno, parece interesante
Ezestorm
ajajja justo estoy con la guitarra.. a ver que onda!!
pablo3396 +1


MUY FACIL DE SACAR


Aunque no entiendo un carajo
rmoya29
Los 5 que me quedan y reco Mario Bros Intro Guitarra
Salaraisu
Mmmm... se ve fácil, hay que intentarlo.