epespad

El Padrino para guitarra criolla (Tablatura, Punteo)

Para principiantes


e----0-3--I-2-0-3-0-2-0-------I---------------0-3--------
B--0------I-------------1-3---I--0----------0------------
G---------I-------------------I--------------------------
D---------I-------------------I--------------------------
A---------I-------------------I--------------------------
E---------I-------------------I--------------------------



e--2-0-3-0-2-0-------I----------------0--I--2------------4----
B--------------0-----I--------------1----I-------------1------
G----------------3---I--2---------2------I-----------2--------
D--------------------I-------------------I--------------------
A--------------------I-------------------I--------------------
E--------------------I-------------------I--------------------




e--0-----------------I--------------------I---------------0-3-
B--------------0-3---I--1-0-3-2-1-0-------I-------------0-----
G------------0-------I--------------0-----I-------------------
D--------------------I----------------4---I--2----------------
A--------------------I--------------------I-------------------
E--------------------I--------------------I-------------------


e-----------0-0----I-------------2-0---I-----------------------
B---------------4--I--3--------------1-I--0---------0-3-0------
G------------------I-------------------I-----------------------
D--2---------------I-------------------I-----------------------
A------------------I-------------------I-----------------------
E------------------I-------------------I----------------------


e---------------------I--------------0-3---I
B--------------1------I--0---------0-------I
G--2---------2---2----I--------------------I
D---------------------I--------------------I
A---------------------I--------------------I
E---------------------I--------------------I

es la que va

Para hacerte el capo


|----------------------------------------------------------------|
|-15---14-15-16--15-15---------15---14-15-16--15-15--------------|
|----------------------15---------------------------14-----------|
|----------------------------------------------------------------|
|----------------------------------------------------------------|
|----------------------------------------------------------------|

|----------------------------------------------------------|
|-15---14-15-18--15-14-15br-15---------14-----------|
|--------------------------------14brbr--------r14-------|
|----------------------------------------------------------------|
|----------------------------------------------------------------|
|----------------------------------------------------------------|

|----10-13-12-10-13-10-12-10------------------------|
|-10-------------------------11-13-10----------------------|
|----------------------------------------------------------------|
|----------------------------------------------------------------|
|----------------------------------------------------------------|
|----------------------------------------------------------------|

|----10-13-12-10-13-10-12-10-------------------------|
|-10-------------------------/10-9-8-------------------------|
|----------------------------------------------------------------|
|----------------------------------------------------------------|
|----------------------------------------------------------------|
|----------------------------------------------------------------|

|-----------/-------6-9-9----------------------------------------|
|----6-10-10-----/8---------------13-11-10-13-11-10-10-----------|
|-/7---------------------------10--------------------------------|
|--------------------------/12---------------------------11-12---|
|----------------------------------------------------------------|
|----------------------------------------------------------------|

|-10-10-9-8-10/12-10-----------------------------------------10--|
|--------------------11-10----10-13-10-8----8-11-9-10-----10-----|
|----------------------------------------------------------------|
|----------------------------------------------------------------|
|----------------------------------------------------------------|
|----------------------------------------------------------------|

|-13^12^10--13^12^10--13^12^10-------------------------------------|
|-----------------------------12b-12b-b12-12-10-12-10-9-10-12-10-9-|
|------------------------------------------------------------------|
|------------------------------------------------------------------|
|------------------------------------------------------------------|
|------------------------------------------------------------------|

|-13-12-10-9-10-12-10-9----9-----------------------------|
|-----------------------10---10-12-10-9----9----12---------|
|---------------------------------------11---11----11-9----9--|
|-------------------------------------------------------11---11--|
|-------------------------------------------------------------------|
|-------------------------------------------------------------------|

|-----------------------------9-10-----------------------------|
|--------13-11-10-13-11-10-10--------------------------|
|-----10--------------------------------------------------------|
|-/12-----------------------------------------------------------|
|----------------------------------------------------------------|
|----------------------------------------------------------------|

cualquier duda no duden en preguntar espero que les haya gustado nos vemos en mi próximo post

0 comentarios - El Padrino para guitarra criolla (Tablatura, Punteo)