Tablaturas Faciles para la guitarra

Tablaturas Faciles para la guitarra



Damas y caballeros, talvez me recuerden de post como Emma Watson la mejor coleccion de Fotos (http://www.taringa.net/posts/imagenes/12176190/Emma-Watson_-La-mejor-Coleccion-de-Fotos.html) o de La historia del Mig 21 y sus variantes (http://www.taringa.net/posts/info/12121986/La-historia-del-Mig-21-y-sus-variantes.html) ho ya sea de mi monografia "¿Digo yo: porque los chilenos no nos bancan?" (http://www.taringa.net/posts/apuntes-y-monografias/13959714/_Digo-yo_-poque-los-chilenos-no-nos-bancan_.html) pero ahora les traigo unas tablaturas faciles para la guitar.. haa y acuedensen que hay que escuchar antes la cancion para saber como va..

Tablaturas Faciles para la guitarra

Rock me Baby - B. B. King


e|----------------------|----------------------|---------------------------|
B|(repeat this 8 times)-|(repeat this 4 times)-|-(repeat this 4 times)-----|
G|----------------------|----------------------|---------------------------|
D|----------------------|-10-10---h---12-12----|---------------------------|
A|-10-10---h---12-12----|--8--8--------8--8----|-10-10---h---10-10---------|
E|--8--8--------8--8----|----------------------|--8--8--------8--8---------|

e|----------------------|--------------------------------------------------|
B|(repeat this 2 times)-|(repeat this 2 times)-|-(repeat this 2 times------|
G|----------------------|----------------------|---------------------------|
D|-12-12---h---14-14----|-10-10---h---12-12----|---------------------------|
A|-10-10-------10-10----|--8--8--------8--8----|-10-10---h---12-12---------|
E|----------------------|----------------------|--8--8--------8--8---------|

e|----9--9----9--9----9--9----9--9-----------------------------------------|
B|----9--9----9--9----9--9----9--9-----------------------------------------|
G|----9--9----9--9----9--9----9--9-----------------------------------------|
D|----8--8----8--8----8--8----8--8-----------------------------------------|
A|----9--9----9--9----9--9----9--9-----------------------------------------|
E|----9--9----9--9----9--9----9--9-----------------------------------------|

The next riff is fairly simple and played by the King over the other riff.
The notes are played very sharp and clean. Dont overlap the notes at all.

e|---8------------8--|-----13------------13-|----8------------8------------|
B|-8----10~(hold)----|--13-----16~(hold)----|--8----10~(hold)--------------|
G|-------------------|----------------------|------------------------------|
D|-------------------|----------------------|------------------------------|
A|(repeat 4 times)---|--(repeat 2 times)----|---(repeat 2 times)-----------|
E|-------------------|----------------------|------------------------------|

e|---15------------15|-----13------------13-|----8------------8------------|
B|15-----18~(hold)---|--13-----16~(hold)----|--8----10~(hold)--------------|
G|-------------------|----------------------|------------------------------|
D|-------------------|----------------------|------------------------------|
A|--(repeat once)----|----(repeat once)-----|-----(reapeat 2 times)--------|
E|-------------------|----------------------|------------------------------|


guitarra

R.I.P. (Rock in Peace) – AC/DC

E------------------|
B------------------|
G---4-4-4-4-4-4----|
D---4-4-4-4-4-4----|
A---2-2-2-2-2-2----|
E------------------|

E---------------------------------------|
B---------------------------------------|
G---------------------------------------|
D---------------------------------------|
A---2-2-4-2--2-2-4-2--2-2-4-2--2-2-4-2--|
E---0-0-0-0--0-0-0-0--0-0-0-0--0-0-0-0--|

E---------------------------------------|
B---------------------------------------|
G---------------------------------------|
D---2-2-4-2--2-2-4-2--2-2-4-2--2-2-4-2--|
A---0-0-0-0--0-0-0-0--0-0-0-0--0-0-0-0--|
E---------------------------------------|

E---------------------------------------|
B---------------------------------------|
G---------------------------------------|
D---------------------------------------|
A---2-2-4-2--2-2-4-2--2-2-4-2--2-2-4-2--|
E---0-0-0-0--0-0-0-0--0-0-0-0--0-0-0-0--|

E----------------------------------------------|
B----------------------------------------------|
G----------------------------------------------|
D--4-4-4-4-4-4-4-4-4--2-2-2-2-2-2-2---2-5-4-3--|
A--2-2-2-2-2-2-2-2-2--0-0-0-0-0-0-0---2-5-4-3--|
E-------------------------------------0-3-2-1--|

bajo

Fling thing – AC/DC
Riff 1 (right channel)
|-3-----------------------|-3-----------------------|
|-0-----------------------|-0-----------------------|
|-0-----------------------|-0-----------------------|
|-0-----------------------|-0-----------------------|
|-2-----------------------|-2-----------------------|
|-3-----------------------|-3-----------------------|

Riff 2 (left channel) w/Riff 1
|-------------------------|-------------------------|
|-------------------------|-------------------------|
|-0-4p0-0-2p0-0-4p0-0-2p0-|-0-4----------4p0-0-----0-----|
|-------------------------|----------------4-2p0-|
|-------------------------|-------------------------|
|-------------------------|-------------------------|

RIFF 3
|-----------------------------------------------------------------------|
|-------2-2------------------------2/5-7----5--5-7-7-52-2-5-3-2--------|
|-2-2-4-----4-2-2----------2-2-2-2-------------------------------4p2----|
|-2---------------4p2--2h4-2-----------------------------------------4--|
|-----------------------------------------------------------------------|
|-----------------------------------------------------------------------|

|-----------------------------|
|---------2-5-7--5-2---2------|
|-----2-2------------4---4--2-|
|-2h4-----------------------2-|
|---------------------------0-|
|-----------------------------|

tablatura


Cold Cold Hearted Man – AC/DC
Intro
E|----------------------|-------------------|---------------------|
B|----------------------|-------------------|---------------------|
G|--2------5------------|--4----------------|--7------5-----------|
D|--2------5------0-2---|--5----------------|--7------5------5----|
A|--0------3------------|--5----------------|--5------3------5----|
E|----------------------|--3----------------|----------------3----|

Verse:
|-------------------|------------------|-------------------|------------------|
|-------------------|------------------|-------------------|------------------|
|--2----------------|------------------|--2----------------|------------------|
|--2----------------|------------------|--2----------------|------------------|
|--0----------------|------------------|--0----------------|------------------|
|-------------------|------------------|-------------------|------------------|

|-------------------|------------------|-------------------|------------------|
|-------------------|------------------|-------------------|------------------|
|--5----------------|------------------|-------------------|------------------|
|--5----------------|------------------|--5----------------|------------------|
|--3----------------|------------------|--5----------------|------------------|
|-------------------|------------------|--3----------------|------------------|

|--------------------|--------------------|-------------------|
|--------------------|--------------------|-------------------|
|--5------7----------|---------2----------|--2----------------|
|--5------7----------|--5------2----------|--2----------------|
|--3------5----------|--5------0----------|--0----------------|
|--------------------|--3-----------------|-------------------|

|------------------|-------------------|------------------|-------------------|
|------------------|-------------------|------------------|-------------------|
|------------------|--5----------------|------------------|-------------------|
|------------------|--5----------------|------------------|--5----------------|
|------------------|--3----------------|------------------|--5----------------|
|------------------|-------------------|------------------|--3----------------|

Chorus:
|---------------------|-------------------|----------------------|
|---------------------|-------------------|----------------------|
|--7------5-----------|--2----------------|--2------5------------|
|--7------5------5----|--2----------------|--2------5------0-2---|
|--5------3------5----|--0----------------|--0------3------------|
|----------------3----|-------------------|----------------------|

|-------------------|------------------------|--------------------|
|-------------------|------------------------|--------------------|
|--4----------------|----4--4----4--4--4--4--|--7------6----------|
|--5----------------|----5--5----5--5--5--5--|--7------7----------|
|--5----------------|----5--5----5--5--5--5--|--5------7----------|
|--3----------------|----3--3----3--3--3--3--|---------5----------|

|----------------------|-------------------|------------------------|
|----------------------|-------------------|------------------------|
|--2------5------------|--4----------------|----4--4----4--4--4--4--|
|--2------5------0-2---|--5----------------|----5--5----5--5--5--5--|
|--0------3------------|--5----------------|----5--5----5--5--5--5--|
|----------------------|--3----------------|----3--3----3--3--3--3--|

|--------------------|----------------------|-------------------|
|--------------------|----------------------|-------------------|
|--7------6----------|--2------5------------|-------------------|
|--7------7----------|--2------5------0-2---|--5----------------|
|--5------7----------|--0------3------------|--5----------------|
|---------5----------|----------------------|--3----------------|

after 2nd chorus:
|---------------------|-------------------|-------------------------|
|---------------------|-------------------|-------------------------|
|--7------5-----------|--2----------------|-----------5-------------|
|--7------5------5----|--2----------------|--7-----------5----------|
|--5------3------5----|--0----------------|-----7--7--------7/-9----|
|----------------3----|-------------------|-------------------------|

|----------------------|-------------------------|----------------------|
|----------------------|-------------------------|----------------------|
|--7--------5----------|-----------5-------------|--7--------5----------|
|-----7----------------|--7-----------5----------|-----7----------------|
|--------7-------------|-----7--7--------7/-9----|--------7-------------|
|----------------------|-------------------------|----------------------|

acordes

Let there be Rock! – AC/DC
(Intro) Riff 1
e |-------------------------------------------------------------------|
B |-------------------------------------------------------------------|
G |----------------------------------------------2--------------------|
D |-0--2-2-------------0--2-2--------------0-2-2-2-2-2-0-2-2----------| 3X
A |-0--2-2-------------0--2-2--------------0-2-2-0-2-2-0-2-2----------|
E |-3--0-0--0-0-0-0-0--3--0-0-0-0-0-0-0----3-0-0---0-0-3-0-0-0-0-0-0-0|
. . . . . . . . . . . . . . .

(Verse)
In the beginning...
...

... LET THERE BE ROCK!!!!
RIFF 2
e |------------------------------------------------------------|
B |------------------------------------------------------------|
G |-2-2--x---x-2-2--x---x-2-2--x---x-2-2--x---x-2-2--x---x-2-2-|
D |-2-2--x---x-2-2--x---x-2-2--x---x-2-2--x---x-2-2--x---x-2-2-|
A |-0-0--x---x-0-0--x---x-0-0--x---x-0-0--x---x-0-0--x---x-0-0-|
E |------------------------------------------------------------|

e |------------------------------------|
B |------------------------------------|
G |-x---x-2-2--x---x-2-2--x---x-2-2--x-|
D |-x---x-2-2--x---x-2-2--x---x-2-2--x-|
A |-x---x-0-0--x---x-0-0--x---x-0-0--x-|
E |------------------------------------|

Solo 1 (Guitar 2 Plays Riff 2)

e |-------------------------------------------------------------|
B |-------------------------------------------------------------|
G |-------------------------------------5--7-7(9)-7-5--7-5~~~~~-|
D |---7---7---7--------7---7---7----7-------------------------|
A |-------------------------------------------------------------|
E |-------------------------------------------------------------|

e |-------------------------------------------------------------|
B |-------------------------------------------------------------|
G |---5-7-7(9)-7-5-7---5-7-7(9)-7---5-5-----5---5-5---5-5---5-5-|
D |-7----------------7------------7-----7-7---7-----7-----7-----|
A |-------------------------------------------------------------|
E |-------------------------------------------------------------|


e |------------------------------------------------------------|
B |------------------------------------------------------------|
G |---5-5---5-5---5---5-5---5-5---5-5---5-5---5-5---5-5---5-5--|
D |-7-----7-----7---7-----7-----7-----7-----7-----7-----7------|
A |------------------------------------------------------------|
E |------------------------------------------------------------|


e |------------------------------------------------------------|
B |------------------------------------------------------------|
G |---5-5---5-5---7---7-7---7-7---7-7---7-7---7---7-7---7-7----|
D |-7-----7-----7---9-----9-----9-----9-----9---9-----9--------|
A |------------------------------------------------------------|
E |------------------------------------------------------------|

e |--------------------------17--------------------------------|
B |-------------------20(22)----20-17--------------------------|
G |---7-7---7-7---7-------------------17-17----19-17-----------|
D |-9-----9-----9---------------------------19-------19--------|
A |------------------------------------------------------------|
E |------------------------------------------------------------|


e |-5-------5-5-------5-5-------5-5-------5-5-------5-------5~~|
B |---8(10)-----8(10)-----8(10)-----8(10)-----8(10)---8(10)----|
G |------------------------------------------------------------|
D |------------------------------------------------------------|
A |------------------------------------------------------------|
E |------------------------------------------------------------|

e |-12h14p12h14p12h15~~~~~~------------------------------------|
B |------------------------------------------------------------|
G |------------------------------------------------------------|
D |------------------------------------------------------------|
A |------------------------------------------------------------|
E |------------------------------------------------------------|

----- End Solo 1

Riff 1
e |-------------------------------------------------------------------|
B |-------------------------------------------------------------------|
G |----------------------------------------------2--------------------|
D |-0--2-2-------------0--2-2--------------0-2-2-2-2-2-0-2-2----------| 3X
A |-0--2-2-------------0--2-2--------------0-2-2-0-2-2-0-2-2----------|
E |-3--0-0--0-0-0-0-0--3--0-0-0-0-0-0-0----3-0-0---0-0-3-0-0-0-0-0-0-0|
. . . . . . . . . . . . . . .


And it came to pass....
...

LET THERE BE ROCK!!!!

RIFF 2
e |------------------------------------------------------------|
B |------------------------------------------------------------|
G |-2-2--x---x-2-2--x---x-2-2--x---x-2-2--x---x-2-2--x---x-2-2-|
D |-2-2--x---x-2-2--x---x-2-2--x---x-2-2--x---x-2-2--x---x-2-2-|
A |-0-0--x---x-0-0--x---x-0-0--x---x-0-0--x---x-0-0--x---x-0-0-|
E |------------------------------------------------------------|

e |------------------------------------|
B |------------------------------------|
G |-x---x-2-2--x---x-2-2--x---x-2-2--x-|
D |-x---x-2-2--x---x-2-2--x---x-2-2--x-|
A |-x---x-0-0--x---x-0-0--x---x-0-0--x-|
E |------------------------------------|


Solo 2 (Guitar plays Riff 2)
e |------------------------------------------------------------|
B |------------------------------------------------------------|
G |------------------------------------------------------------|
D |--14-------------------------------------------------------|
A |----------0-0-3-4-0-0-3-4-0-0-3-4-0-0-3-4-0-0-3-4-0-0-3-4---|
E |------------------------------------------------------------|

e |-----------------|------------------------------------------|
B |-----------------|------------------------------------------|
G |-----------------|------------------------------------------|
D |-----------------|--------2-2-4-4-5-5-4-4-2-2---------------|
A |-0-0-3-4-0-0-3-4-|0-0-4-4---------------------4-4-0-0-4-4---|
E |-----------------|------------------------------------------|

e |------------------------------------------------------------|
B |------------------------------------------------------------|
G |------------------------------------------------------------|
D |2-2-4-4-5-5-4-4-2-2-------------4-4-6-6-7-7-6-6-4-4---------|
A |--------------------4-4-2-2-6-6---------------------6-6-2-2-|
E |------------------------------------------------------------|

e |--------------------------------9-9--8-------8-------8------|
B |-------------------------------10------10------10------10---|
G |--------------------------------9---------11------11------11|
D |----4-4-6-6-7-7-6-6-4-4-------------------------------------|
A |6-6---------------------6-6---------------------------------|
E |------------------------------------------------------------|

e |-8-------8-------8-------8-------8-------8-------8-----8----|
B |---10------10------10------10------10------10----------10---|
G |------11------11------11------11------11------11---11-------|
D |------------------------------------------------------------|
A |------------------------------------------------------------|
E |------------------------------------------------------------|

e |-12h14p12h14p12h15~~~~~~------------------------------------|
B |------------------------------------------------------------|
G |------------------------------------------------------------|
D |------------------------------------------------------------|
A |------------------------------------------------------------|
E |------------------------------------------------------------|

---- End Solo 2

Riff 1
e |-------------------------------------------------------------------|
B |-------------------------------------------------------------------|
G |----------------------------------------------2--------------------|
D |-0--2-2-------------0--2-2--------------0-2-2-2-2-2-0-2-2----------| 3X
A |-0--2-2-------------0--2-2--------------0-2-2-0-2-2-0-2-2----------|
E |-3--0-0--0-0-0-0-0--3--0-0-0-0-0-0-0----3-0-0---0-0-3-0-0-0-0-0-0-0|
. . . . . . . . . . . . . . .

One night in the club called the Shakin' hand...

Riff 3
e |----------------------|
B |----------------------|
G |---------2------------|
D |-2-0-2-2-2-2-2-0-2/---| 4x
A |-2-0-2-2-0-2-2-0-2/---|
E |-0-3-0-0---0-0-3-0/---|


RIFF 2
e |------------------------------------------------------------|
B |------------------------------------------------------------|
G |-2-2--x---x-2-2--x---x-2-2--x---x-2-2--x---x-2-2--x---x-2-2-|
D |-2-2--x---x-2-2--x---x-2-2--x---x-2-2--x---x-2-2--x---x-2-2-|
A |-0-0--x---x-0-0--x---x-0-0--x---x-0-0--x---x-0-0--x---x-0-0-|
E |------------------------------------------------------------|

e |------------------------------------|
B |------------------------------------|
G |-x---x-2-2--x---x-2-2--x---x-2-2--x-|
D |-x---x-2-2--x---x-2-2--x---x-2-2--x-|
A |-x---x-0-0--x---x-0-0--x---x-0-0--x-|
E |------------------------------------|

Tablaturas Faciles para la guitarra

La pantera rosa

-]---------------------------------------------------------------------------------------------------------
-]---------------------------------------------------------------------------------------------------------
-]---------------------------------------------------------------------------------------------------------
-]------------------------------------------------------3/2-------2/1----0---------------------------------
-]---------------------------------------2/3------2/3--------0/3-----------3-0-----0-----------------------
-]---2/3-4/5--------2/3--4/5----2/3-4/5------4/5---------------------------------3-------------------------


-]---------------------------------------------------------------------------------------------------------
-]---------------------------------------------------------------------------------------------------------
-]---------------------------------------------------------------------------------------------------------
-]------------------------------------------------------3/2-------2/1----0---------------------------------
-]---------------------------------------2/3------2/3--------0/3-----------3-0-----0-----------------------
-]---2/3-4/5--------2/3--4/5----2/3-4/5------4/5---------------------------------3-------------------------
P P P P
-]--5----------------/---------------/-------------/---------------
-]----8--5-----------/---------------/-------------/---------------
-]---------7-5---5--7/---8--8--8--8--/---7--5--0---/---7--5--0-----
-]-------------6-----/---------------/----------7-7/-----------7-7-
-]-------------------/---------------/-------------/---------------
-]-------------------/---------------/-------------/---------------

guitarra


Jhonny B. Goode – Chuck Berry


E|-------6/777-6/777-6/777--------------------------------|
B|---7-9-6/777-6/777-6/777-10-9-7-------------------------|
G|7/8-----------------------------7/8---------------------|
D|------------------------------------8-8/999-8/999-8/999
A|--------------------------------------8/999-8/999-8/999
E|--------------------------------------------------------|

E|-------------------------------------------|
B|---7-9-7----------7?-7?-7?-7----7?-7?-7--7-|
G|7/8------8------9b?9b-9b-9b---9b-9b-9b-9b--|
D|-----------11-9----------------------------|
A|-------------------------------------------|
E|-------------------------------------------|

E|--7--------9-7----------------7---------------|
B|----10-9-7-----10-9-7-----7h10-10---7?-7------|
G|9b--------------------9-9b--------9b-9b?9-7---|
D|--------------------------------------------9-|
A|----------------------------------------------|
E|----------------------------------------------|

bajo

Hail Ceasar – AC/DC esta es facil y esta buenisima!
e ||--------------------------------||
B ||--------------------------------||
G*||--------------------------------||*
D*||------------------------------2----||*
A ||2--2----2--2----2--2---2---0----||
E ||3--0----3--0----3--0---3--------||


Intro part2 / Chorus
Reg. distortion

e ||----------------------------------------------------------------||
B ||----------------------------------------------------------------||
G*||----------------------------------------------------------------||*
D*||-------------------------------2-----------------------------------2----||*
A ||2--2----2--2----2--2---2---0----2--2----2--2----2--2---2---0----||
E ||3--0----3--0----3--0---3--------3--0----3--0----3--0---3--------||


Verse

e ||----------------------------------------------------------------||
B ||----------------------------------------------------------------||
G*||----------------------------------------------------------------||*
D*||-------2--------------------------------------------------------||*
A ||2---2--0--2--2--------------------------------------------------||
E ||0---3-----3--0--------------------------------------------------||

e ||----------------------------------------------------------------||
B ||----------------------------------------------------------------||
G*||----------------------------------------------------------------||*
D*||-------2--------------------------------------------------------||*
A ||2---2--0--2--2--------------------------------------------------||
E ||0---3-----3--0--------------------------------------------------||

e|----------------------------------------------------------------||
B|----------------------------------------------------------------||
G|---------------------------------------2----------------------2-||*
D|-------4---------------4--------2---2--0--2--2--2---2--2---2--0-||*
A|4---0--2-p0--4--4---0--2-p0--4--0---3-----0--3--0---3--0---3----||
E|2------------2--2------------2----------------------------------||

e|----------------------------------------------------------------||
B|----------------------------------------------------------------||
G|------------------------------------2-------2-------2-----2-----||*
D|-------4---------------4----------4-0-4-4-4-0-4-4-4-0-4-4-0-----||*
A|4---0--2-p0--4--4---0--2-p0--4----2---2-2-2---2-2-2---2-2-------||
E|2------------2--2------------2----------------------------------||


*Chorus*

*Verse*


Bridge lick

Lead guitar Backgr. guitar
e|--------------------------------|
B|---------------3----------------|
G|9p7------------2----------------|
D|----8-7--------0--3--0----------|
A|--------10-7------1--0--5---2---|
E|------------------------3---0---|

Lead guitar
e|--------------------------------|
B|--------------------------------|
G|9p7-----------------------------|
D|----8-7-------------------------|
A|--------10-7----5-75--------2---|
E|--------------------6-5-3---0---|


*Solo*


Solo background

e ||----------------------------------||
B ||3----------------3----------------||
G*||2----------------2----------------||*
D*||0---3--0---------0--3--0----------||*
A ||----1--0--5--2------1--0--5---2---||
E ||----------3--0------------3---0---||

e ||----------------------------------||
B ||3----------------3----------------||
G*||2----------------2----------------||*
D*||0---3--0---------0--3--0----------||*
A ||----1--0--5--2------1--0--5---2---||
E ||----------3--0------------3---0---||

e ||----------------------------------||
B ||----------------------------------||
G*||7---------------------------------||*
D*||5---8--7--5--2---5--2---5-2-------||*
A ||----6--5--3--0---3--0---3-0-------||
E ||----------------------------------||

e ||----------------------------------||
B ||3----------------3----------------||
G*||2----------------2----------------||*
D*||0---3--0---------0--3--0----------||*
A ||----1--0--5--2------1--0--5---2---||
E ||----------3--0------------3---0---||


*Bridge lick*


Bass riff background este riff de bajo esta buenisimo con la guitarra..
p.m.
e ||------------------------------||
B ||------------------------------||
G*||------------------------------||*
D*||------------------------------||*
A ||------------------------------||
E ||3-0-0-0-3-0-0-0-3-0-0-3-0-5-0-||


Guitar

e ||----------------------------------------------------------------||
B ||----------------------------------------------------------------||
G*||----------------------------------------------------------------||*
D*||------------------------------------------------------------2-------||*
A ||(2)---------------------------2--2----2--2----2--2---2--0--2----||
E ||(0)---------------------------3--0----3--0----3--0---3-----0----||


e ||----------------------------------------------------------------
B ||----------------------------------------------------------------
G*||----------------------------------------------------------------
D*||-------2--------------------------------------------------------
A ||2---2--0--2--2--------------------------------------------------
E ||0---3-----3--0--------------------------------------------------

e ----------------------------------------------------------------||
B ----------------------------------------------------------------||
G 3---------------------------------------------------------------||*
D 0---3--0--------------------------------------------------------||*
A ----1--0--5--2--------------------------------------------------||
E ----------3--0--------------------------------------------------||

tablatura

Hard as a Rock – AC/DC


e|-2-4-||-5--4-2-0-2-4-2 2--4-0 0--4-2 2--2-4-||5--4-2-0-2-4-2 2--4-0-0--4-2 2|
b|-0-0-||-0--0-0-0-0-0-0-0--0-0-0--0-0-0--0-0-||0--0-0-0-0-0-0-0--0-0-0--0-0-0|
g|-----||*-----------------------------------*||------------------------------|
D|-----||*-----------------------------------*||------------------------------|
A|-----||-------------------------------------||------------------------------|
E|-----||-------------------------------------||------------------------------|

e||---------------------------------------||---------------|
b||---------------------------------------||---------------|
g||*------4------1-----4-4----1-1----4-4-*||-1-4--4--4--4--| 4 Times
D||*------4------2-----4-4----2-2----4-4-*||-2-4--4--4--4--|
A||-------2------2-----2-2----2-2----2-2--||-2-2--2--2--2--|
E||--------------0------------0-0---------||-0-------------|

/ Verse : Guitar 1
| Pattern 2b |
| E/B B5 E/B B5 E/B B5 E/B B5 A5/B |
| e|---------------|---------------|---------------|---------------|-| |
| b|---------------|---------------|---------------|---------------|-| |
| g|-1-4--4--4--4--|-1-4--4--4--4--|-1-4--4--4--4--|-1-4--4--4--4--|2| 2x |
| D|-2-4--4--4--4--|-2-4--4--4--4--|-2-4--4--4--4--|-2-4--4--4--4--|2| |
| A|-2-2--2--2--2--|-2-2--2--2--2--|-2-2--2--2--2--|-2-2--2--2--2--|0| |
| E|-0-------------|-0-------------|-0-------------|-0-------------|-| |
| |
| Gtr.2 plays something like: |
| Pattern 2a w/Gtr.1 |
| e|----------------------------------------------|---------| |
| b|----------------------------------------------|---------| |
| g|---4---------------4---------------4--------4-|2--1-4-4-| |
| D|-6-4--4--4--4----6-4--4--4--4----6-4--4--4--4-|2--2-4-4-| |
| A|-2-2--2--2--2----2-2--2--2--2----2-2--2--2--2-|-----2-2-| |
| E|----------------------------------------------|---------| |
/

E/B B5 A5/B E/B B5 E/B A5/B B5 E/B A5/B B5
e|----------------------------------------------------------------------------|
b|----------------------------------------------------------------------------|
g|-1-4-4--2---1-4-4-1-1-1-1--1-2--x--2-1-4-4-2-1-1-2-1--1-2-1--x--2--1-4-4-2-1|
D|-2-4-4--2---2-4-4-2-2-2-2--2-2--x--2-2-4-4---2-2-2-2--2-2-2--x--2--2-4-4---2|
A|-2-2-2--0---2-2-2-2-2-2-2--2-2--x--0-2-2-2---2-2-2-2--2-2-2--x--0--2-2-2---2|
E|-0----------0-----0-0-0-0--0-0-------0-------0-0-0-0--0-0-0-----------------|

E/B A5/B B5 E/B
e|----------------------------------|
b|----------------------------------|
g|-1-2-1--1-2-x-x-2--1-4-4---1--2-1-|
D|-2-2-2--2-2-x-x-2--2-4-4---2--2-2-|
A|-2-2-2--2-2-x-x-0--2-2-2---2--0-2-|
E|-0-0-0--0-0--------0-----0-0----0-|

Chorus:
B5 E B5 E B5 E B5 E B5
e|----------------------------------------------------------------------------|
b|----------------------------------------------------------------------------|
g|-4-----1-------4-4---2-1-1------4-4-----4--1-4-4---2--1---2--4-4-4--2--1--1-|
D|-4-----2-------4-4---2-2-2------4-4-----4--2-4-4---2--2---2--4-4-4--2--2--2-|
A|-2-----2-----0-2-2---2-2-2----0-2-2-----2--2-2-2---2--2---0--2-2-2--2--2--2-|
E|-------0-----------------------------------0-------0--0----------------0--0-|
B7sus4 B5 E B7sus4 B5 B5
e|----------------------------------------------------------------------------|
b|----------------------------------------------------------------------------|
g|--4-4-4-2-2-1--1-----4-4--1----4-4--4-2-2-1-1----4-4--4--2-2-1-1----4-4--4--|
D|--4-4-4-2-2-2--2-----4-4--2----4-4--4-2-2-2-2----4-4--4--2-2-2-2----4-4--4--|
A|--2-2-2-2-2-2--2---0-2-2--2--0-2-2--2-2-2-2-2--0-2-2--2--2-2-2-2--0-2-2--2--|
E|0-----------0--0----------0---------------0-0----------------0-0------------|
E Solo...
e|----------------------------------------------------7-x-7-7-10-10-7---------|
b|--------------------------------------------------------------------7-10-10-|
g|-2-2-1--1-----4-4--x--7------------------7--9-9-9-9-------------------------|
D|-2-2-2--2-----4-4-------9-9-9--9--9--9-9------------------------------------|
A|-2-2-2--2--0--2-2-----------------------------------------------------------|
E|-----0--0-------------------------------------------------------------------|

e|----7--7--------------------------------------------------------------------|
b|10-----7--9---9---7---------------9-9-9--9--------10-10--10---15-----15-----|
g|----------9-7-9---7------------7--9-9-9--9---7--9-11--------------16----16--|
D|----------------9----x-x--9-9-----------------------------------------------|
A|----------------------------------------------------------------------------|
E|----------------------------------------------------------------------------|

e|-----------------------------------------12-----14--------------------------|
b|17-15-17----17-17-15-17-----12-12-12-15-----17-----15-----------------------|
g|---------16--------------14---------------------------16-13-16-16-16-16-16-/|
D|----------------------------------------------------------------------------|
A|----------------------------------------------------------------------------|
E|----------------------------------------------------------------------------|
Outro (3.Verse) w/Mainriff
B5 E/B B5 E/B B5
e|---------------------------| e||--------------------------||
b|17--15---------------------| b||--------------------------||
g|------16-16-16-------16--| g||*-4--1--4-4----1--1--4--4*|| 5 times
D|---------------------------| D||*-4--2--4-4----2--2--4--4*||
A|---------------------------| A||--2--2--2-2----2--2--2--2-||
E|---------------------------| E||-----0---------0--0-------||
B5 E5 B5 E A E A E A E
e|----------------------------------------------------------------------------|
b|----------------------------------------------------------------------------|
g|4--4-2-1-1-2-4--4-4-4-4-4-2-1-1-1-1-1-1-2-1-1-1-1-1-1-1-2-1-1-1-1-1-1-1-2-1-|
D|4--4-2-2-2-2-4--4-4-4-4-4-2-2-2-2-2-2-2-2-2-2-2-2-2-2-2-2-2-2-2-2-2-2-2-2-2-|
A|2--2---2-2-2-2--2-2-2-2-2---2-2-2-2-2-2-2-2-2-2-2-2-2-2-2-2-2-2-2-2-2-2-2-2-|
E|-------0-0-0----------------0-0-0-0-0-0-0-0-0-0-0-0-0-0-0-0-0-0-0-0-0-0-0-0-|
A B5 E B5
e|------------------------------|
b|------------------------------|
g|1-1-1-1-1-1-2--4--1--4--4-4-4-|
D|2-2-2-2-2-2-2--4 y, it`s darn right mean

acordes


Star Wars – a New Hope


1------3-5-6-8-6------------3-5-6---6-3-10-8----|
2--3-3---------3--3-3----------3---------------|
3-------------------------------------------|
4-------------------------------------------|
5-------------------------------------------|
6-------------------------------------------|

1------3-5-6-3-10----15---6-5-3----6-3-----3|
2--3-3------------11----8-------10-----3-3--|
3-------------------------------------------|
4-------------------------------------------|
5-------------------------------------------|
6-------------------------------------------|
Tablaturas Faciles para la guitarra

Los piojos – como ali
--------------------------------------------------
-----------------------------------6--5-----------
-----------7-----------7-----------------5--7----- x2
--5--7--8-----5--7--8-----5--7--8-----------------
--------------------------------------------------
--------------------------------------------------



guitarra



bajo


tablatura


Siganme!! dejan puntos!! Recomineden!!! lo que sea!!

P/D: y me suben de Rango!!!

0 comentarios - Tablaturas Faciles para la guitarra