Tablaturas faciles para el q recien comienza

Como leer una Tablatura?

1ra cuerda->Mi - E||-----------------|
2da cuerda->Si - B||--1--------------| <- El nº q sale, es el numero del traste a tocar
3ra cuerda->Sol- G||----0------------| <- El 0 es la cuerda al aire
4ta cuerda->Re - D||-----------------|
5ta cuerda->La - A||-----------------|
6ta cuerda->Mi - E||-----------------|

Cumpleaños Feliz o El payaso plin-plin (es la misma cancion con distinta letra.

Mi - E||------------------------1----0----------------------------3----1----|
Si - B||--1----1----3------1----------------1----1----3------1--------------|
Sol- G||--------------------------------------------------------------------|
Re - D||--------------------------------------------------------------------|
La - A||--------------------------------------------------------------------|
Mi - E||--------------------------------------------------------------------|

------------8------5----1----1------0---------------6----6----5----|
--1----1---------------------------------3-------------------------|
-------------------------------------------------------------------|
-------------------------------------------------------------------|
-------------------------------------------------------------------|
-------------------------------------------------------------------|

--1----3-----------1-------||
---------------------------||
---------------------------||
---------------------------||
---------------------------||
---------------------------||

Estrellita

MI - E-------------0-0--------------------------------
SI - B--------3-3-------3--------1-1--0-0-------------
SOL-G-0-0------------------------------------2-2--0----
RE - D----------------------------------------------
LA - A----------------------------------------------
MI - E----------------------------------------------

----------------------------------------------
--3-3--1-1--0-0-------3-3--1-1--0-0-----------
---------------------2----------------------2--------
----------------------------------------------
----------------------------------------------
----------------------------------------------

-----------0-0--------------------------------
------3-3-------3--------1-1--0-0-------------
-0-0--------------------------------2-2--0----
----------------------------------------------
----------------------------------------------
----------------------------------------------

La cucaracha

MI - E-----------1-5-----------1-5--1-1-0-0-----------------------
SI - B--1-1-1------1-1-1----------------------3-3-1-----------------
SOL- G------------------------------------------------------
RE - D------------------------------------------------------
LA - A------------------------------------------------------
MI - E------------------------------------------------------


--------0-3------------0-3--8-10-8-6-5-3-1----------------
--1-1-1------1-1-1------------------------------------
------------------------------------------------------
------------------------------------------------------
------------------------------------------------------
------------------------------------------------------


------1-1-5-5-8-5--8-10-8-6-5-8-6-3-------------------
--1-1-------------------------------------------------
------------------------------------------------------
------------------------------------------------------
------------------------------------------------------
------------------------------------------------------


------0-0-3-3-6-3--8-10-8-6-5-3-1---------------------
--1-1-------------------------------------------------
------------------------------------------------------
------------------------------------------------------
------------------------------------------------------
------------------------------------------------------


Los Simpsons (en esta le doy vuelta la TAB usa muchas cuerdas)

Mi - E----------------------------------------------------
La - A----------------------------------------------------
Re - D----------------------------4-4-4-------------------
Sol- G------------------------2---------0-----------------
Si - B-1-------------------1------------------------------
Mi - E-----0---2--5-3-0-----------------------------------


----------------------------------------------------------
----------------------------------------------------------
----------------------------4-4-4----4-4-4----------------
------------------------2---------0----------0--------------
-1-------------------1------------------------0---2-2-2-3-
-----0---2--5-3-0-----------------------------------------

Y esta de yapa

Come as you are - Nirvana

MI - E------------------------------------------------------
SI - B------------------------------------------------------
SOL- G------------------------------------------------------
RE - D------------------------------------------------------
LA - A------------0---0----------2------2-----------------------
Mi - E--0-0-1-2---2---2-2-1-0---0-0-------------------------

y repite todo quitandole un 0 del principio.. entienden? si no comenten

Comentarios Destacados

97 comentarios - Tablaturas faciles para el q recien comienza

XDXDXDXDXD +7
jaja las saque a todas en dos minutos, pero estan muy buenas, porque nunca se me habia ocurrido buscar tabs de canciones tan simples y a la vez tan populares..la de los simpsons la tengo para guitar pro y la de nirvana tambien. Gracias
LePier +2
Uhhhh re piola che la de nirvana un amigo me la taba enseñando pero hasta ahi no ma jajajajaj ahora se flaca y toy aprendiendome el estanque de Heroes del Silencio que temazo lo super recomiendo
sicolmacoco +4
jejeje si hubiera conocido esto antes de tocar, te dejo una tricota
Nicosio
muy bueno mañana te doy puntoss ca´po
pupienmexico
gracias che me cague de risa
facil el asunto
Perceb18
jejej buenidsimo mi primer punteo jeje
romikpa
muy bueno t dejo +2
daniinv
Muy buena la de nurvana, me sirviio mucho, +10 capo
che pero se toca rapido no? xD
El_logo_BJ
Muy bueno che, yo estoy aprendiendo a tocar asi que te dejo +5
viscacha94 +3
Excelente aporte, pero les digo, por que a mi me gusta pero esta bien igual, suena bien la de los simpsons al final con:

----------------------------------------------------------
----------------------------------------------------------
----------------------------4-4-4----4-4-4----------------
------------------------2---------0----------0--------------
-1-------------------1------------------------0------------
-----0---2--5-3-0--------------------------------2-2-2-3-

bajar esos 2223 1 cuerda igual queda bien de la otra forma
Dextruqtyvaa +2
aaaaaai justo lo qe necesitaba ! ♥
ufozao
apenas estoy empezando y no e podido sacar ni una jaja
solo la del himno a la alegria jaja
te dejo 10+ por tu buena onda y las canciones
quique__915 +1
sake un par jaja q muerto q soi dios pero bueh jaja
FedexC +2
te doy la mia de los simpsons

Mi - E-----------------------------------------------------------------------
La - A-----------------------------------------------------------------------
Re - D---------------------------------------------------------------------
Sol- G---------7-5--------------------------------------------------------
Si - B-----7-9------7--3-0------------------------------------------------
Mi - E-8---------------------2-2-2-2-3---2-2-2-2-3--6--8-8-8-8-------
elhimnotristesonido -16
BUENO GENTE SI ENTIENDEN LO VAN A SACAR AL TOQUE. [SE PUEDE HACER ASI,PERO ES MEJOR DE LA OTRA MANERA]

SMELLS LIKE TEEN SPIRIT

4TA CUERDA: -------------7mo---------9no-------------------------9no-----7mo----5to----4to---5to---4to--5to---4to
5TA CUERDA: 9no traste------------------------------7mo traste---------------------------------------------------------7mo----5to---
-----------------------------7mo--------9no----7mo--------5to------|
6TA CUERDA: -----------------------------------------------------------9no---10mo---9no----10mo---9no--10mo--9mo---10mo
--------------------------------------------------------9no-----9no---7mo|

INTRO: Em A5 G C

LA PARTE QUE DICE &quot;hello, how low?&quot;

3ER CUERDA: 5TO TRASTE Y 2DA CUERDA EN 6TO TRASTE [USTEDES ENTENDERAN]

SALUDOS,ESPERO QUE LES SIRVA.
Pericles2010 -13
che pero tengo una bajo de cuatro cuerdas y aca ahy de sexta cuerda estoy re perdido
eruto480 +7
Pericles2010 dijo:che pero tengo una bajo de cuatro cuerdas y aca ahy de sexta cuerda estoy re perdido

jajajaaj.
thespeed94
buena !!!
MUY BIEN EXPLICADO
tendras uno que explique como leer acordes si tienes uno te doy +10
hinafu
mas 10 por la Estrellita.
ku6
Muy bueno, gracias. Estoy empezando y dan ganas de seguir cuando sale una melodia entera. +10
pepu69
+10
me sirvo para practicar
Daviid1694 +4
no me habia dado cuenta que el payaso plin plin y el feliz cumpleaños tienen el mismo ritmo
09Gabriel +5
Daviid1694 dijo:no me habia dado cuenta que el payaso plin plin y el feliz cumpleaños tienen el mismo ritmo

Mensaje subliminal?
naxxxxxo
muy buenas !!! pero que cuerdas tengo que tocar ? mi viejo tiene una guitarra y me encantaria empezar a tocar !
cuchu08
JAJA aaa tocarrrrrrrrrrrrrrrrrrrrrrr
elrolly25
muy piola las probe4 a todas y estan muy buenas