Soda Stereo y cerati, tablaturas de guitarra echas por mi

Hola! les dejo unas tablaturas que realize para un foro..

Los languis


Intro

e----2--/-----2-----------------------   Puntea cuerda por cuerda,  la D,la G,la B y la e...
B----2--/-----2-----------------------
G----4--/-----2-----------------------
D----2--/-----4-----------------------
A--------/----2-----------------------
E--------/----------------------------

Solo ..(8)

e|--2--------|                      
B|--2--------|    
G|--2--------|                       
D|--2-----------
A|----------|                      
E|-----------|                     

hora mas (8)

e|--4--------|                      
B|--3--------|    
G|--2--------|                       
D|--4---------|
A|--2--------|                      
E|----------|


En silencio (8)..

e|--9--------|                      
B|--10-------|    
G|--9--------|                       
D|------------|
A|-----------|                      
E|-----------|

El tiempo para...(8)

e|--2--------|                      
B|--2--------|    
G|--3--------|                       
D|--4--------|
A|--4--------|                      
E|--2--------|

Afirmar (8)
e|----9-----|
B|---10---- |
G|---9------|
D|----------|
A|----------|
E|----------|


Mi nombre en tu cuello (8)..

e|---2--------|
B|---3--------|
G|---2-------|
D|---4-------|
A|---2--------|
E|---2--------|


Repetis todo devuelta y cuando dice...

Cuando se acabe...(8)

e|-----7------|
B|-----7------|
G|-----9------|
D|-----9------|
A|-----7------|
E|------------|   
       

La tribu estara sedienta..(8)

e|---7--------|
B|---10--------|
G|----9-------|
D|----7-------|
A|----x------|
E|----x------| 


Y repetis los 2 acordes denuevo...


y cuando dice "de los languis" Repetis la intro...

en el minuto 2:47 por ahi donde hace "UUuuuh (8)"

hace estos 2 acordes


e|-----------------|
B|-----------------|
G|-----------------|
D|---7----6------|
A|---7----6------|
E|---5----4------|

Despues vas a un...

e|-----------|
B|-----------|
G|-----------|
D|-----3------|
A|-----3------|
E|-----1------| 

y al final donde esta el saxo hace

e|-----------|
B|-----------|
G|-----------|
D|-----9------|
A|-----9------|
E|-----7------|  

y la otra parte donde 

donde juega el saxo hace asi (minuto 2:53 por ahi)

e|------------|
B|------------|
G|------------|
D|----3----5-|
A|----3----5-|
E|------------|

e|---------------|
B|---------------|
G|----3---------|
D|----3------5--|
A|-----------5--|
E|--------------|                         

Hace la intro y devuelta hace esos juegos de acorde


Hombre al Agua



Intro de bajo..

Y cuando salto de cubierta..(8)

e---------------
B---------------
G----5----------
D----5----------
A----3---------
E--------------

Riff 1
e--------------------------------------------/
B--------------------------------------------/
G--2-1-2-1--------------1-2--4s5--2-1----/
D------------4--2-4----------------------2-/
A------------------------------------------/
E------------------------------------------/

  C5                                            A
Y voy envuelto en la corriente..(8)

e----------------
B-----------2----
G----5------2----
D----5------2----
A----3-----------
E----------------

Despues de eso hace esto..

e--------------------------------------------------12---------12--------------------------------------/
B-------------------------------------------------------------------------------------------------------/
G------------------------------------------14b15-----14b15------14--12------------------------------/
D-----------------14VVV-s0-----14VVV------------------------------------14--14VV --14VVH16-------/
A-------------------------------------------------------------------------------------------------------/
E---15s0----0-----------------0-----------------------------------------------0-----0----------------/

e/---9---9----10--10---9---9-------/
B/---10--10---10--10---10--10----/
G/----9---9----9---9-----9----9---/
D/----------------------------------/
A/---------------------------------/
E/---------------------------------/

Nuevas formas crecen..
e/-----------------------------/
b/-----------------------------/
g/-------------------------------/
d/------2VV---2VV---------------/
a/-------------------------------/
E/---0------0--------------------/


Son tan atractivas (8)


e/-------------------------/------------------/
b/------------------------/-----------------/
g/-----------------------/------------------/
d/---------5-4-------2-/---2VV-----2VV---/
a/--------------3-4---/-------------------/
E/-----0--------------/--0-----0-----------/

e/---9---9----10--10---9---9-----/
b/---10--10---10--10---10--10---/
g/---9----9----9----9----9----9---/
d/---------------------------------/
a/---------------------------------/
E/---------------------------------/


Y voy flotando por el rio (8) repite el riff que puse antes


y despues en hombre al agua hace

Mi          Sol La Do
Hombre al agua
Mi          Sol La Do
voces que se agitan
Mi          Sol La Do
hombre al agua
Mi          Sol La Do
barco a la deriva


Y despues ace este mini solo..


e/-------------15-------15-------/
B/---15b--15b------15b----------/
G/---------------------------------/ Repitanlo un par de veces
D/---------------------------------/
A/---------------------------------/
E/---------------------------------/


Y despues hace...

e/-------------------------------------------------------------------------------------/
B/--------------------------------------------------------------------------------------/
G/---12VV---------------------------------12vv------------------14b15----------------/*
D/-----------14--12--14----------12--14---------14--12--14-------------14-12-14VV--/
A/-------------------------12--14--------------------------------------------------------/
E/---------------------------------------------------------------------------------------/

*:si quieren improvisen en esa escala..

dspues hace

e/---9---7---5---3----/
B/---------------------/
G/--9---7---5---3-----/
D/---------------------/
A/---------------------/
E/---------------------/


Repiten el riff 1 ..

Y todo de nuevo hasta el solo...

Amanecio..Abre los ojos...(8)

e/-----------------------------------/
b/----------------2-2---------------/
g/----4-4-4-4-----2-2---1-1------/
d/----4-4-4-4-----2-2---2-2------/  X2
a/----2-2-2-2-----------2-2-----/
E/-------------------------------/

   !-PALM MUTE-!

Todos gritaran..Hombre al aguaaa...(8)

e/--------------------3--3-----------/
b/--------------------3--3--2-------/
g/----6-6-6-6----1-1--0--0--2----/
d/----6-6-6-6----2-2--0--0--2----/
a/----4-4-4-4----2-2--2--2------/
E/--------------------3--3-------/

Improvisen un solo en la escala de MI

Y una parte de la guitarra hace esto.. que tmb lo hacia el teclado..

e/------------------------------------/  
b/----15--15--15--15--15--15--15-/
g/------------------------------------/    
d/------------------------------------/
a/------------------------------------/ 
E/------------------------------------/  
                                     
e/---------------------------------/  
b/---15--14-----------------------/  
g/----------14--12----------------/ 
d/---------------------------------/  
a/---------------------------------/  
E/---------------------------------/  
                                   
Repitanlo un par de veces ..


Y luego hacen esto...

solo 2:
e/------------------------------------/
b/-----15p12----------15p12--------/
g/------------14p12----------14p12-/
d/------------------------------------ / 
a/------------------------------------/
E/------------------------------------/

Repitan bastantes veces..

y remata con un Mi SOL y LA...

s= Slide
b= Bend
V= Vibrato



Cancion Animal


INTRO: 

e-(7)----------------/-------------9t*----/
B-----(7)------------/----------7-------/
G---------(7)--------/--------7--------/        
D-------------(7)-----/-----7---------/        
A---------------------/--------------/        
E--------------------/--------------/


( ) = Harmonicos naturales
*: Hagan el efecto con el tremolo de la guitarra.

"Hipnotizmo de un flagelo..Dulce tan dulce"

RIFF 1
e--------------------------------/
B--------3-----------3-----------/
G--------------------------------/  
D----------------2---------------/
A---2---------3-----------------/
E-0------0----------------------/

Repite hasta que dice


  G                          A G 
Cuando el cuerpo no espera..(8)
                     
                    D   Riff 1
Lo que llaman..amor (8)

D           C                  D *
Mas..se pide y se vive (8)

Despues de hacer el D hace asi

e------8------------/
B----8-------------/
G--9--------------/
D-----------------/
A----------------/
E----------------/


Cancion animal (8)

e:I------------------------------------------/
B:I------------------------------------------/
G:I----0-------0----------------------------/
D:I----2-------2----------------------------/
A:I----3-------2------3--5--3---2s3-------/
E:I------------------------------------3-0t--/


Repite  x2

El solo (sacado de la cuerda) con el efecto harmonizer..

e:I----------------------I--------------------------------------------------------------------------I
B:I----------------------I--------------------------------------------------------------------------I
G:I----------------------I--------------------------------------------------------------------------I
D:I-5/15~--12-15-12--I-----9h10p9s7~---9h10p9s12-9--9s17--15-14--15-14h15p14s\------I
A:I----------------------I-/12----------------------------------------------------------------------I
E:I----------------------I----------------------------------------------------------------------------I

e:I-------------------------------------------I---------------------------------------------------------------I
B:I-------------------------------------------I---------------------------------------------------------------I
G:I-------------------------------------------I---------------------------------------------------------------I
D:I-/17-17-17-17-17-15s17-15s17-17-17-I----17~--15h17--18--17p15h17---15h17--18--17p15h17--I
A:I-------------------------------------------I---------------------------------------------------------------I
E:I-------------------------------------------I---------------------------------------------------------------I


e:I-------------------------------I
B:I-------------------------------I
G:I-------------------------------I
D:I-15h17--18p17--18p17s\/--I
A:I-------------------------------I
E:I-------------------------------I



Avenida Alcorta

INTRO*


1º|------------------------I
2º|--4b5--4----------------I
3º|--7b8--7--5-7 5 7-------I 
4º|------------------------I
5º|------------------------I
6º|------------------------I




*: explico...toquen las 2 cuerdas en esos trastes, levantan las cuerdas y ligan la G en el traste 5 y 7 ... si no lo entienden luego les hago un video sin ningun problema ^^


Luego de la intro hace esto...


[Am F D F  Am D G F] x 2 Hagan estos acordes con cejilla...


Y despues de que diga "ciicatriz (8)"

Hace esto...


1º|--12---10---10---8---------------------I
2º|--13---10---12---10---------------------I
3º|--12---11---10----8---------------------I
4º|--14---10---12---10--------------------I
5º|--12---12---10----8--------------------I
6º|--12---10---10----8-------------------I


Y la parte que dice ...


D    F        G       D
No se, no se donde estas

           F               G
y me vuelvo extrano  (Los acordes con cejilla aganlos)


Todo de nuevo y en la parte que dice 


Csus2    D#      F           Csus2 D# F
He encerrado el cielo para ti
Csus2 D#    F           Csus2 D# F
no   tengo tierra para mi
Csus2    D#      F           Csus2 D# F
He encerrado el cielo para ti
Csus2 D#    F          [Csus2 D# F] x 4  
no   tengo tierra para mi

Esa parte esta en la cuerda y suena perfecto.. Los acordes encejillados siempre!

Csus2 -> X35533


Amo dejarte Así



Intro (Puntear cuerdas)

eI--------I
BI--------I
GI--4-----I
DI--6-----I
AI--4-----I
EI--------I



Dmaj 7*  Emaj7
   Divina obscenidad

Dmaj7 (con arreglo )

dar el máximo de piel

Emaj7
sin librarte de mí


Intro x4          

Amo dejarte así.

C#7* 


Dmaj 7
Palabras profanas

Emaj7
de tu boca pura

Dmaj7
toda mi dulzura

Emaj6*
pendula sobre tí.

Intro 
Amo dejarte así.
Amo quedarme así.

c#7*

Amo dejarte así.
Amo quedarme así.


ACORDES:

Dmaj7*           Emaj7         Dmaj7 con arreglo 

e I-2h42---I   e I--4-------I   e I-2----------I
B I-2------I   B I--4-------I   B I-2--5-4-5---I
G I-2------I   G I--4-------I   G I-2----------I
D I-2------I   D I--4-------I   D I-2----------I
A I-X------I   A I--X-------I   A I-x----------I
E I-X------I   E I--X-------I   E I-x----------I



C#7* (Primero hagan el slide para atras desde el 7,6 y 4, este seria el acorde con el delay) 

e I-4-------I
B I-7s6-4---I
G I-4-------I
D I-6-------I
A I-4-------I
E I-x-------I

En el final en un momento la cuerda G Hace este arreglo..

G I ---4-6b7----I

h: Hammer
b: Bend
S: slide


Dios nos Libre


INTRO:

e/------------/-------------------------/
B/------------/------------------------/
G/---9--4-5--/----9-4--5------------/
D/---7--2-3--/----7-2--3---5*-----/
A/------------/--------------3*----/
E/------------/--------------------/

*: Muteen ese acorde ;)

Bueno..y el tema seria asi: 


G         F           G          F
Cuando me llegue la oportunidad
G         F         C          D
buscaré la forma de hacerte saber
G         F           G          F
mis deseos en la oscuridad (oscuridad)
G         F         C          D
eso es lo que pienso desde ayer



F#m       F        Am          D
Súbete a los excesos de este amor
F#m       F        Am          D
y tal vez veamos la revelación
F#m       F        Am          D
dios nos libre
F#m       F        Am          D
dios nos libre,
G     F#m      G#m
de rogar por más


Los acordes del intermedio que dije (2:53) serian asi

INTER:
Am - Fmaj7/C - D - Fmaj7/C
Am - G - D - Fmaj7/C
Am - Fmaj7/C - D - Fmaj7/C
Am - G - D - Fmaj7/C


pero estoy seguro que cerati no usa esa digitacion pero bueno aver que me dicen ;)

el final seria

dios nos libre
dios nos libre
dios nos libre...

FINAL:   G - F (x3) C - D


Secuencia Inicial

Intro
e---0--------0----0-------0/-----------0----------------------------------------------------------/
B---0--------0----0-------0/-----------1----------------------------------------------------------/
G---6--------7---- 9------12/----------2---------0----------------------------------------------/
D---7--------9----11-----14/---------3----------2---------------------------------------------
A---0--------0-----0-----14/---------3-----------2----------------------------------------------/
E--------------------------------------------------------------------------------------------------/


La secuencia..iniciaal (8)

e---x-------
B---9-------
G---6------
D---7------
A----------
E-----------


Corre (8)..

e---5-------
B---7-------
G---6------
D---------
A----------
E-----------

Repite ottra ves...


Miro atras... (8)

e-7---8--7--5--7--
B-5----------------
G-5----------------
D-5----------------
A-5----------------
E-5----------------

Y veo la razon...(8)

e-4--2--4------
B-2-----------
G-2-----------
D-2-----------
A-2-----------
E-2-----------

Repite otra ves..

Y hace esto que en donde se escucha el "uuuhhh.." que hace cerati 

e---0----0-----/----2--0---2--0--2----------------------------------- Repitanlo un opar de veces ese acorde ultimo
B---7----5-----/----0------------------------------------------------
G---6----4-----/----4------------------------------------------------
D---x----x-----/----4-----------------------------------------------
A--------------/--------------------------------------------------
E--------------/--------------------------------------------------


Despues solo empieza denuevo tooodo...

SOLO

1------------------------------------------------------------|
2----------------------------------------------3-3-----------|
3----2-2-0-0-000--2-2-0-0-000---4-4-2-2--2-2-2------2--2-2-2-|
4------------------------------------------------------------|
5------------------------------------------------------------|
6------------------------------------------------------------| x2

1------------000----------------------------------------------------|
2------------000-------------------------------3-3------------------|
3----2-2-0-0-000--2-2-0-0-000---4-4-2-2--2-2-2------2--2-2-2-|
4--------------------------------------------------------------------|
5--------------------------------------------------------------------|
6--------------------------------------------------------------------|

1------------000-----------------------------------------------------|
2------------000-------------------------------3-3------------------|
3----2-2-0-0-000--2-2-0-0-000---4-4-2-2--2-2-2------2--2-2-2-|
4--------------------------------------------------------------------|
5--------------------------------------------------------------------|
6--------------------------------------------------------------------|



y despues al final, "mojate los labios y sueñaa" repitan la intro y listo ^^

Cuando termina, una parte del tremolo seria asi..

e-0----------------
B-1-0-1-0--------- Y rasguean el acorde 2 veces con tremolo...
G-2----------------
D-3----------------
A-0----------------
E-0----------------



espero que les sirva cualquier cosa pregunten

saludos!

4 comentarios - Soda Stereo y cerati, tablaturas de guitarra echas por mi

wiriloro
no tine tratame suabemente o prsiana americana
Gus20stereo
Sos de Zona de promesas? esta joya