Canciones faciles para guitarra!! (punteos)

Hola!
Este es mi segundo post para taringa! Ojalá les sirva.

Verán... Yo estoy aprendiendo guitarra y siempre necesitaba punteos faciles, pero nunca encontraba... o eran muy dificiles o eran aburridos. (Fueron los primeros que me salieron)

Canciones faciles para guitarra!! (punteos)

Aqui les dejaré unos punteos faciles de canciones... que todo el mundo podría hacer con el minimo de practica.


Para empezar tenemos la cancion

SOLAMENTE UNA VEZ (Agustin Lara)

guitarra

Primero, para los que no entiendan tablaturas:
(El numero romano es la cuerda y el numero es el traste ej; II: 1 Cuerda 2 traste 1)

Primera parte: (solamente una vez amé en la vida)

I: 0,1,0
III: 2
II: 0,2,2
I: 0,1,0
III: 1
________________

Segunda parte: Solamente una vez

I: 2,4,2
III: 4
II: 3
I: 2
______________

Tercera parte: Y nada mas

I: 5,4,0
II: 1

Y aqui va la tablatura:

e|-0-1-0---------0-1-0---|-2-4-2-----2-|-5-4-0-------|
B|---------0-2-2---------|---------3---|-------1-----|
G|-------2-------------1-|-------4-----|-------------|
D|-----------------------|-------------|-------------|
A|-----------------------|-------------|-------------|
E|-----------------------|-------------|-------------|

Fácil, no?

Pd. esta no es la misma tablatura que esta en todos lados, estas es mas facil, me la enseñó un profesor.

Te motivaste para mas? Entonces aquí va la segunda:

EL PADRINO(Facilisima):
facil

Primero, para los que no entiendan tablaturas:
(El numero romano es la cuerda y el numero es el traste ej; II: 1 Cuerda 2 traste 1)

II: 0
I: 0,3,2,0,3,0,2,0
II: 1,3,0
II: 0
I: 0,3,2,0,3,0,2,0
II: 0
III: 3,2,0
II: 1
I: 0,2
III: 0
II: 0,4
I: 0
IV: 2
I: 3
II: 3,1,0,3,1,0,0,4

1|--0-3-2-0-3-0-2-0-------0-3-2-0-3-0-2-0-----------0-2-----0-3----------------------|
2|-0---------------1-3-0-0---------------0---------1-----0-4---3-1-0-3-1-0-0-4-------|
3|-------------------------------------------3-2-0------0----------------------------|
4|-----------------------------------------------------------2-----------------------|
5|-----------------------------------------------------------------------------------|
6|-----------------------------------------------------------------------------------|

SMOKE ON THE WATER (Deep Purple)
aprender

Primero, para los que no entiendan tablaturas:
(El numero romano es la cuerda y el numero es el traste ej; II: 1 Cuerda 2 traste 1)

Esta resulta bien en cualquier cuerda (Hazlo en la que te resulte mas comoda)

V: 0,3,5,0,3,6,5,0,3,5,3,0,0


e|-----------------------------|
B|-----------------------------|
G|-----------------------------|
D|-----------------------------|
A|-0-3-5-0-3-6-5-0-3-5-3-0-0---|
E|-----------------------------|

Facil!!

TETRIS (La cancion del famoso juego, resulta muy entretenida tocarla)

tablatura

Primero, para los que no entiendan tablaturas:
(El numero romano es la cuerda y el numero es el traste ej; II: 1 Cuerda 2 traste 1)

I: 0
II: 0,3,5,3,0
III: 2
II: 1
I: 0
II: 3,1,0,0,1,3
I: 0
II: 1
III: 2,2

Aqui la tablatura

e|-0---------------0---------------------|
B|---0-3-5-3-0---1---3-1-0-0-1-3---1-----|
G|-------------2-----------------0---2-2-|
D|---------------------------------------|
A|---------------------------------------|
E|---------------------------------------|


LAS MAÑANITAS
principiante

Primero, para los que no entiendan tablaturas:
(El numero romano es la cuerda y el numero es el traste ej; II: 1 Cuerda 2 traste 1)

I: 0,0,5,5,4,5,7,4,5,7,9,5,7,9,10,10,10,9,7,5,4,7,5,4,5,7,9,10,7,5

Aqui la Tablatura
e|-0-0-5-5-4-5-7-4-5-7-9-5-7-9-10-10-10-9-7-5-4-7-5-4-5-7-9-10-7-5-------|
b|-----------------------------------------------------------------------|
g|-----------------------------------------------------------------------|
D|-----------------------------------------------------------------------|
A|-----------------------------------------------------------------------|
E|-----------------------------------------------------------------------|

CIELITO LINDO
punteo

Primero, para los que no entiendan tablaturas:
(El numero romano es la cuerda y el numero es el traste ej; II: 1 Cuerda 2 traste 1)

Primera parte: Ese lunar que
II: 1,1
III: 2
II: 0
III: 0
_________
Segunda parte: Tienes cielito
II: 1,1
III: 2
II: 0
III: 0
_________
Tercera parte: Lindo junto a la
II: 1,1
III: 2
II: 0
III: 0
________
Cuarta parte:
IV: 3,0 Boca
II: 0,0,0,0 No se lo des
III: 2,0,0 A nadie
IV: 0,2,3 Cielito
III: 0,0,0 lindo que a
IV: 3,2,0 mi me to -
V: 3 ca


e|-----------------------------------------------------------------------|
b|-1-1-0-1-1-0--1-1-0-----0-0-0-0----------------------------------------|
g|----2-0---2-0----2-0------------2-0-0-------0-0-0----------------------|
D|----------------------3-0--------------0-2-3-------3-2-0----------------|
A|--------------------------------------------------------3--------------|
E|-----------------------------------------------------------------------|



Bueno ese fue mi post de punteos faciles para guitarra, ojala les haya servido para aprender y soltar mas los dedos

Cualquier consulta o sugerencia pueden hacerla aqui en el post o mandar privado.


No se olviden de comentar

canciones faciles

51 comentarios - Canciones faciles para guitarra!! (punteos)

Rataheavy
Yo soy malisimo para la guitarra... jajaja... Pero recien estoy empezando asi esto me viene mas que bien. Mañana te dejo puntos.
dfmmm +2
HUYY Q BUEN POST LO MALO ESQUE NO TENGO GUITARRA NI PUNTOS
arq_carlos00
buen post loco¡¡ segui aportando en este estilo
hernando32
ta bueno tu post. recien empieso con la guitarra y me viene de 10
Fabro182
grosooooooooooooooooooo
javier316
gracias brow estan de lujo
1a2l3
son para guitarra electrica o española
brunokz
EXCELENTE VIEJO! ME LOS HE SACADO CASI TODOS! GRACIAS!
rubicor
Perfecto me encanta el del padrino +10!
soylomejor
rubicor dijo:Perfecto me encanta el del padrino +10!

yo tmb me re copó!!
manux1515
ahora soy todo un roncanrolero
dokos
jajajaajaaajajaa q buena onda estoo P
jmg794
Sarpado loco, gracias me cope con la del padrino!!!!!!
jusebo94
viejo el post pero igual te hago NFU!!! por que me ayudaste con esto
La mejor ... el padrino
lalilalilali
gracias estoy comenzando con punteos y si es muy dificil encontrar algunos

+10
GABY_RB
No es mas facil una tablatura ?
Knocking +2
Menos mal que eran punteos
cordobez_07
Muy buenos! muy faciles pero no los sabia..jeje----+10!
kevinhouse007
muy bueno man !! añadido a fav ! y mañana + 10
the_nik_32
buen post te doy +5 solo por la de deep purple
razor1969
la del tetris no me sale!!!!!!!!!!!!!!!!!!! jeje
upinsmoke1996
yeah la de las mañanitas ta mas facil k la k me estaba aprendiendo cambiare a esta grax
TiburonFlash
+3 puntos asi llegas a 100! xD
me sirvio de mucho, me aprendi la del padrino y esta muy buena gracias
SurfPancho
Muchas gracias estaba buscando "smoke on the woter" nunca la encontraba asi que decidi no buscarla mas y puse punteos taringa en google y puse este post que aca la encontre muchisimas gracias.
VAN MIS 10!!!¡¡¡¡