como tocar come as you are

empezemos!!!!!!!

para empezar a tocar come as you are
primero tenemos k aprender el riff principal aki les muestro unas tablaturas

E -----||--------------------------------------------------------
B -----||--------------------------------------------------------
G -----||--------------------------------------------------------
D -----||---------------------------------------------------------
A -----||-------------0-----0--------------------2------------2-||-
E --0--||--0--1--2-----2-----2---2---1---0-------0---0-----||-

aki sta una explicacion mas detallada

1. Tocar la 6ª cuerda al aire.

2. Tocar la 6ª cuerda al aire.

3. Pulsando con el dedo índice, tocar la 6ª cuerda en el primer traste.

4. Pulsando con el dedo corazón, tocar la 6ª cuerda en el segundo traste
.
5. Manteniendo el dedo corazón en el 2º traste de la 6ª cuerda, tocar la 5ª cuerda al aire.

6. Volver a tocar la 6ª cuerda en el 2º traste.

7. Sin mover el dedo corazón, volver a tocar la 5ª cuerda al aire.

8. Tocar 2 veces seguidas la 6ª cuerda en el 2º traste con el dedo corazón.

9. Tocar la 6ª cuerda en el traste 1 pulsando con el dedo índice.

10. Tocar la 6º cuerda al aire.

11. Pulsando con el dedo corazón el traste 2 de la 5ª cuerda, tocar la 5ª cuerda.

12. Tocar la 6ª cuerda dos veces al aire.

13. Repetir el paso 11.

14. Vuelta al paso 2


les dejo la tab del puente k se basa en power chords

E --||------------------------------------||--
B --||-----FA#----------------LA5----||--
G --||--------------------------2--------||--
D --||------4------------------2--------||--
A --||------4------------------0--------||--
E --||------2----------------------------||--

esto se toca con la pua pues si no se hace asi se ensuciara el sonido

el estribillo se basa en power chords

E --||-----------------------------||--
B --||-----------------------------||--
G --||-----4------------7--------||--
D --||-----4------------7--------||--
A --||-----2------------5--------||--
E --||----SI5----------RE5-----||--

solo se tocan la 5,4 y 3 cuerda

el solo es relativamente facil solo se utiliza el slide "/"

E ||----------------------------------------------------------------------------||
B ||----------------------------------------------------------------------------||
G ||--6-9-9/11---6-9-9/11---6-9-9/11-11/13-13-1311-11-9---||
D ||----------------------------------------------------------------------------||
A ||----------------------------------------------------------------------------||
E ||-----------------------------------------------------------------------------||

aka una explicacion del solo

1. Toca la 3ª cuerda pulsando con el dedo índice en el traste 6.

2. Toca la 3ª cuerda pulsando con el dedo anular el traste número 9.

3. Toca de nuevo la 3ª cuerda en el traste 9 y sin levantar el dedo anular, arrástralo hasta el número 11.

4. Repite los 3 pasos anteriores de nuevo.

5. Toca la 3ª cuerda con el dedo índice en el traste 6.

6. Toca la 3ª cuerda con el dedo anular en el traste 9.

7. De nuevo toca la 3ª cuerda con el dedo anular en el traste 9, y sin levantarlo, arrástralo hasta el traste número 11.

8. Sin levantar el dedo anular, toca de nuevo la cuerda 3 en el traste 11 y arrastra el dedo anular hasta el traste número 13.

9. Toca de nuevo la 3ª cuerda en el traste 13.

10. Sin levantar el dedo anular, toca de nuevo la 3ª cuerda en el traste 13, y arrastra el dedo hacia atrás hasta el traste número 11.

11. Toca de nuevo la 3ª cuerda en el traste 11 con el dedo anular.

12. Toca la 3ª pulsándola con el dedo índice en el traste 9.

13. Vuelta al paso número 1.


aka la estructura de la cancion

La canción tiene la siguiente estructura:

1. Riff principal 12 veces.
2. Puente 4 veces
3. Riff principal 4 veces.
4. Puente 4 veces
5. Estribillo 4 veces
6. Riff principal 2 veces
7. Solo 4 veces
8. Puente 4 veces
9. Estribillo 6 veces
10. Riff principal 4 veces.


PD: SUENA MEJOR LA GUITARRA AFINADA EN RE.

Aqui viene algunos videos:



ADIOS Y COMENTEN.

como tocar come as you are

COMENTEN O EL FATKID LOS APLASTARA.

8 comentarios - como tocar come as you are

duende95
repost a XNAYERXTREME
ironmaiden777
En estos días me la saco! buena explicación gracias
jhua_64 +1
Buen avatar hdp!

It's evolution baby!!!
DapiCandela
Gracias
Me sirvió. Soy ultra básico (lo mio es la cajita china... la guitarra no me resulta tan fácil)