El post que buscas se encuentra eliminado, pero este también te puede interesar

Como tocar punto camino a san francisco en guitarra (Cowboy)

Tablatura de Camino a San Francisco en Guitarra
Bueno gente este post va dedicado para todos aquellos que les gusta la musica de las peliculas de cowboys.
Acà les dejo uno muy conocido tocado en guitarra hecho a mi estilo.
Sirve tanto para guitarra criolla como electrica, acustica, etc.

El post puede parecer simple, pero yo toco en escenarios y muchisimas veces me pidieron que ensenie este tema, el nombre, que estaba bueno, etc.

A continuaciòn dejo un video choreado de internet que tiene la melodia del tema para que se den cuenta cuàl es.


link: http://www.youtube.com/watch?v=http://www.youtube.com/watch?v=7l0FxBKo8pQ&feature=related

Acà la tablatura del punteo:
NOTA: La cuerda 1 serìa la màs aguda, o la màs fina, o la nota mi. Depende el grado de comprensiòn del lector.
(Lo aclaro por que la gente normalmente bardea pidiendo especificaciones, asi que a no llorar)

Camino a san francisco
Intro
DO RE Mi- DO RE
1 -0-2-3----3----2---2---0---0-2-3-3-3-3-5-3-2-2
2 -----5-5---5---3-3--3--0-------5-5-5-5-7-5-3-3
3 -----5--5---5--4-4---4-0------------
4 ------------------------------------

Mi-
1 -2-2-0--0--------------
2 -3-3--3-0--------------
3 --------0--------------
4 -----------------------

mi- LA DO RE
1 ---------------------------------------------
2 ---------------------------------------------
3 ---------------------------------------------
4 --2-2-2-9-9-9-7-5-7-5-2-2-4-5-5-5-5-7-5-4-4-4
5 -2-------------------------------------------

Mi-
1 -----------|----------
2 -----------|----------
3 -----------|----------
4 -4-2-0-2---|----------
5 -----------|----------


LA
1 -0-12-12-12-19-19-19-17-15-17-15-12-
2 ---------------------

DO RE Mi-
1 -12-14-15-15-15-15-17-15-14-14-14-14-12-10-12-
2 ---------------------

1 -------------------|----
2 -12----------------|----
3 ---12-9------------|----
4 -------9-----------|----
5 --------12-10-9-7--|----
DO RE SOL Mi-
1 ---------------------------------7--------7-
2 --7-8----8----10-----10------------10-8-10--
3 -9---9----9-----11-----11-------------------
4 ------10---10-----12-----12-10-9------------
5 --------------------------------------------

DO RE Mi-
1 -0-2-3-3-3-3-5-3-2-2-2-2-0--0--
2 -----5-5-5-5-7-5-3-3-3-3--3-0--
3 ----------------------------0--
4 -------------------------------
5 -------------------------------
6 -------------------------------

7 comentarios - Como tocar punto camino a san francisco en guitarra (Cowboy)

jibagomez
muy bueno deverias colocar mas tab de punteo para mi que estoy empezando esta rebuueno me ayudo un monton no puedo creer que estoy tocando este punteo jajajaj felicidades
El_Internauta
"El bueno, el malo y el feo" se llama la pelicula
fran_chu
El video no anda . Muy bueno el punteo
Callejero18
muy bueno.,. pero al principio lo empezaste.. en Bm
y lo terminaste en Em..