Acordes faciles para guitarra

El post dice faciles pero yo les voy a dejar acordes faciles y un poco mas dificil para los mas avanzados Tambien hay algunos punteos
Primero los acordes faciles:
Por las dudas les voy a dejar para los que no saben esta pequeña guia de cifrado americano que aparece por varias razones:

C: Do
D: Re
E: Mi
F: Fa
G: Sol
A: La
B: Si
m:menor
#:sostenido

Las canciones:

Las Tablaturas

La tablatura es una representación del brazo de la guitarra por medio de seis lineas dispuestas de manera horizontal representando las cuerdas de la guitarra.
A la izquierda, al principio de cada linea horizontal se colocan letras en cifrado americano que dicen las notas de cada cuerda. La cuerda mas aguda estara representada arriba de todo, es decir es la primera linea que se dibuja, en ocasiones la primera cuerda se dibuja con una "e" minúscula al lado.
e|-------------------------------------------------------------|
B|-------------------------------------------------------------|
G|-------------------------------------------------------------|
D|-------------------------------------------------------------|
A|-------------------------------------------------------------|
E|-------------------------------------------------------------|
Basicamente, la tablatura indica que nota se debe tocar en el lugar exacto (esta es la gran diferencia que existe con respecto a la partitura en donde uno debe deducir que digitación usar).Los numeros representaran el traste en el que esta ubicada la nota, en el caso de que diga 0 se tomará como una cuerda al aire.
Una tablatura puede verse mas o menos asi: -Las que les doy no son tan complicadas es un Ejemplo -
E----5----7--------------------------3-----7------------------
B----5----8---------------0-1------1-1-----5--------8--7-5-7--
G----5----7-------------2-----2----------5--------------------
D----7----9----7-9----2---------------------------------------
A----7----10--------0-----------0-----------------------------
E----5----7-----------------------------------8-7-------------
Al principio puede resultar bastante complicado pero la tablatura requiere mucha menos dedicación que la partitura. Observa que cuando hay varios numeros uno encima de otro (como en el ejemplo) indicara que deben tocarse al mismo tiempo, representando un acorde. El TAB debe leerse al igual que cualquier texto, de izquierda a derecha.
Ahora las canciones
Iron man de black sabath:
G---------------------------------
D---------------------------------
A-2-5--5-7-7--109-109-109-5-5-7-7-
E--------------------------------- (x7)

G---------------------------------
D---------------------------------
A-----5---------------------------
E-7-7---7-7-6-555-04567----------- (x3)

G---------------------------------
D---------------------------------
A-2-5--5-7-7--109-109-109-5-5-7-7-
E--------------------------------- (x4)

G---------------------------------------
D-------------------789------------789--
A-7---5-----567-789--------567-789------
E--------77-------------77-------------- (x2)
Peace of mind de boston:
|--------------|---6-7-9-------|------------------|----------------|
|--------------|---------------|------------------|----------------|
|-0-4-6--------|---------------|---5-6-7h9p7-6----|-4-6-7-7--------|
|--------------|--------4-6-7--|-7--------------7-|----------------|
|---------7-9--|---------------|------------------|---------7-4-0--|
|---------5-7--|---------------|------------------|----------------|

|--------------|---------------|---2--------------|----------------|
|--------------|---------------|----5-3h5p3-2-----|----------------|
|--------------|-11-9-7--------|-2------------2---|-4-6-7-7--------|
|-7-4-0-4---7--|--------4---2--|------------------|--------------0-|
|---------7-5--|----------2-0--|------------------|----------7-4-0-|
|---------5----|----------0----|------------------|----------5-2---|

|--------------|---------------|-12-14-12-10h12p10-9---|-9-10-10------|
|--------------|---------------|--------------------10-|10-10-10------|
|-----------7--|-11-9-7--------|-----------------------|--------------|
|-7-4-0-4-7----|--------4-6-7--|-----------------------|--------7-4-0-|
|--------------|---------------|-----------------------|--------------|
|--------------|---------------|-----------------------|--------------|

|--------------|---------------|---2---------------|-----------------|
|--------------|---------------|-----5-3h5p3-2-----|-----------------|
|-----------7--|-11-9-7--------|-2-------------2---|-4-6-7-7---------|
|-7-4-0-4-7----|--------4-6-7--|-------------------|---------------0-|
|--------------|---------------|-------------------|---------7-5-4-0-|
|--------------|---------------|-------------------|---------5-3-2---|

|--------------------------------------------------------------------|
|-7-7-7-8-10-10--8-7-5-7-8-8--8-7-5-3h5p3-2----------7-9/10-10-------|
|-------------------------------------------2--4-6-7-----------------|
|--------------------------------------------------------------------|
|--------------------------------------------------------------------|
|--------------------------------------------------------------------|

|--------------------------------------------------------------------|
|-7-7-7-8-10-10--8-7-5-7-8-8--8-7-5-3h5p3-2--------------------------|
|-------------------------------------------2--4-6-7-----------------|
|----------------------------------------------------4-6/7-7---------|
|--------------------------------------------------------------------|
|--------------------------------------------------------------------|

|-----------------------------------------------|
|-----------------------------------------------|
|-7-7-7-6-4-4-4--9-11b12r11-9-7-9b11r9-7-6------|
|------------------------------------------7----|
|-----------------------------------------------|
|-----------------------------------------------|

|----------------------14-15-17--|-------14-12-14b15r14-12-10-9-9-10-10-|
|-------15-15-14-15-17-----------|-15-17-----------------------10-10-10-|
|-14-14--------------------------|--------------------------------------|
|--------------------------------|--------------------------------------|
|--------------------------------|--------------------------------------|
|--------------------------------|--------------------------------------|


|-----------|
|-5---6-5---|
|---5-----5-|
|-----------|
|-----------|
|-----------|

Guitar 2
|-----------|
|-----------|
|-----------|
|-5---------|
|-3---------|
|-----------|

Then do this:
|-----------|
|-6/8-5-----|
|-------5---|
|-----------|
|-----------|
|-----------|

And finally, fade away doing this:
|------------------|---------|
|-6-8b10r8-6-8-6-5-|-6/8-5---|
|------------------|-------5-|
|------------------|---------|
|------------------|---------|
|------------------|---------|
Smoke on the water-Deep Purple

E||--------------------------|------------------------|
B||--------------------------|------------------------|
G||*--0-----3-----5-------0--|-----3-----6--5---------|
D||*-------------------------|------------------------|
A||--------------------------|------------------------|
E||--------------------------|------------------------|

-------------------------|-----------------------|
-------------------------|-----------------------|
--0-----3-----5-------3--|-----0------L---------*|
-------------------------|----------------------*|
-------------------------|-----------------------|
-------------------------|-----------------------|

Rock you like a hurricane-Scorpions(dos formas)
forma 1:

intro

7x
E||--------------------------|--------------------------||
B||--------------------------|--------------------------||
G||*-------------------------|-------------------------*||
D||*-------------------------|-------------------------*||
A||---7--7--7----------------|-----------3-----5--5-----||
E||-----------------3--3-----|--5--5--------------------||


-------------------------|-------------------------|-------------------||
-------------------------|-------------------------|-------------------||
-------------------------|-------------------------|-------------------||
-------------------------|-------------------------|-------------------||
--7--7--7----------------|-----------3-----5--5----|--L----------------||
----------------3--3-----|--5--5-------------------|-------------------||

base
7x
|---------------------------|---------------------------||
|---------------------------|---------------------------||
|*--------------------------|--------------------------*||
|*--------------------------|--------------------------*||
|---3--3--3--7--7--7--7--7--|--3--3--3--7--7--5--5--5---||
|---------------------------|---------------------------||

--------------------------|-----------------------|-------------------|
--------------------------|-----------------------|-------------------|
--------------------------|-----------------------|-------------------|
--------------------------|-----------------------|-------------------|
--3--3--3--7--7--7--7--7--|--3--3--3--5--L--------|--L----------------|
--------------------------|-----------------------|-------------------|

-------------------||
-------------------||
-------------------||
-------------------||
--L----------------||
-------------------||

forma 2:

intro

7x
E||--------------------------|---------------------------||
B||--------------------------|---------------------------||
G||*-------------------------|--------------------------*||
D||*--2--2--2----------------|-----------------0--0--0--*||
A||--------------------------|--0--0-----3---------------||
E||-----------------3--3-----|---------------------------||

-------------------------|--------------------------|-------------------|
-------------------------|--------------------------|-------------------|
-------------------------|--------------------------|-------------------|
--2--2--2----------------|-----------------0--0--0--|--L----------------|
-------------------------|--0--0-----3--------------|-------------------|
----------------3--3-----|--------------------------|-------------------|

base

7x
|---------------------------|---------------------------||
|---------------------------|---------------------------||
|*--------------------------|--------------------------*||
|*-----------2--2--2--2--2--|-----------2--2--0--0--0--*||
|---3--3--3-----------------|--3--3--3------------------||
|---------------------------|---------------------------||

--------------------------|-----------------------|-------------------|
--------------------------|-----------------------|-------------------|
--------------------------|-----------------------|-------------------|
-----------2--2--2--2--2--|-----------0--L--------|--L----------------|
--3--3--3-----------------|--3--3--3--------------|-------------------|
--------------------------|-----------------------|-------------------|

-------------------||
-------------------||
-------------------||
--L----------------||
-------------------||
-------------------||
ahora un poco mas dificil:
Angel judas priest:

Gtr.1 Intro/Verse
|------------------------------------|
|-----3-3--2-3-----------------------|
|-----4-4-----------0-------2--------|
|---4-4-4-------------0---2---2------|
|-2---------------2-----0------------|
|---------------3--------------------|

|------------------------------------|
|-----3-3--5-3-----------------------|
|-----4-4-----------0-------2--------|
|---4-4-4-------------0---2---2*-----|
|-2---------------2-----0------------|
|---------------3--------------------|

|-9-10-7--9-10-12-10-9-7-5-------7-7-|
|--------------------------5-5/7-----|
|------------------------------------|
|------------------------------------|
|------------------------------------|
|------------------------------------|

|------------------------------------|
|-5-7-8-7-5--------------------------|
|-----------7-6-4-4------------------|
|----------------7-------------------|
|------------------------------------|
|------------------------------------|

|--------------------------------------|--- /
|---------------------3-----3------3-------- /
|-------4----4-----------4-----4-----4-| - / x2
|-----5---5----5-----------4-----4-----| --- /
|---5-------5----5--2------------------|---- /
|-3----------------------------------------- /

|----------------------------------------------------|
|----------------------------------------------------|
|-------4-----4----------0-----0---------3-----3-----|
|-----5---5-----5----------2-----2---------4-----4---|
|---5-------5-----5----2-----2-----2---4-----4-----4-|
|-3------------------0---------------2---------------|

|-9-10-7--9-10-12-10-9-7-5-------7-7-|
|--------------------------5-5/7-----|
|------------------------------------|
|------------------------------------|
|------------------------------------|
|------------------------------------|

|-9-10-12-10-17--17-15-14--14-15-14--------------------|
|----------------------------------14-15--7/17-17b-----|
|------------------------------------------------------|
|------------------------------------------------------|
|------------------------------------------------------|
|------------------------------------------------------|

----------------------------------------------------|
-17-14h15p14-12-------------------------------------|
-------------------------------9-12-11--12-11-9---9-|
----------------3/9-9-11-12-12------------------9---|
----------------------------------------------------|
----------------------------------------------------|

|----------------------------------------------------|
|----------------------------------------------------|
|----------------------------------------------------|
|----------------------------------------------------|
|-------------7--------------------------------------|
|--7--9----10-----9---10-7---------------------------|

|----------------------------------------------------|
|--12---14b14b---16b16b----12------------------------|
|----------------------------------------------------|
|----------------------------------------------------|
|----------------------------------------------------|
|----------------------------------------------------|

|-------------------2---|
|-------------------3---|
|------0-------2----4---|
|--------0---2---2--4---|
|----2-----0--------2---|
|--3--------------------|

Dance of death de iron maiden
Intro:
Clean:
E-------------------------------------------------------------|
B-------------------------------------------------------------|
G-------------------------------------------------------------|
D---9-9----12-12-----7-7----5-5----5-5----7-7----9-9----9-9---|
A--7-7-7--9--9--9---5-5-5--3-3-3--3-3-3--5-5-5--7-7-7--7-7-7--|
E-------------------------------------------------------------|

E-----------------------------------------
B------7-8-10-8--------12-12-10-----------
G---9-----------9--------------12-11-9----
D-----------------------------------------
A-----------------------------------------
E-----------------------------------------

E---------10-----------------------------------|
B---12--12--12-10--10------12-12-10------------|
G----------------12--12-------------12-11-9----|
D----------------------14----------------------|
A----------------------------------------------|
E----------------------------------------------|



1 Verse:

E-------------------------------------------------------------|
B-------------------------------------------------------------|
G-------------------------------------------------------------|
D--9-9-9--12-12-12--7-7-7--5-5-5--5-5-5--7-7-7--9-9-9--9-9-9--|
A--7-7-7--9--9--9---5-5-5--3-3-3--3-3-3--5-5-5--7-7-7--7-7-7--|
E-------------------------------------------------------------|

Fill:
E------------------|
B------------------|
G--7-5-4---4-5-4---|
D--------7---------|
A------------------|
E------------------|


2 Verse:
Acoustic guitar w/ Electric:
Strum:///
E---------------------------------------------------------|
B---------------------------------------------------------|
G--9---12---7---------------------------9---12---7--------|
D--9---12---7---9---12--7---5---7---9---9---12---7--------|
A--7---9----5---7---9---5---3---5---7---7---9----5--------|
E---------------------------------------------------------|


Drums come in..
Strum:///
E-------------------------------------------|
B-------------------------------------------|
G-9---12---7--5-5--7---9--12-7---9----------|
D-9---12---7--5-5--7---9--12-7---9----------|
A-7---9----5--3-3--5---7--9--5---7----------|
E-------------------------------------------|




Order:
1X Riff 1 (Acoustic)
2X Riff 2
2X Riff 1 (Distorted)
2X Riff 2

Acoustic guitar:

Riff 1
E-----------------------------------------------------------
B-----7h8p7-------------7h8p7--------------7h8p7------------
G--9--------9p7-9----9---------9p7-9----9---------9p7-9-----
D-----------------------------------------------------------
A-----------------------------------------------------------
E-----------------------------------------------------------

E--------------------------------------|
B-------7-7-7--7-7-7-7h8p7-------------|
G-9-9-9---------------------9p7-7------|
D--------------------------------------|
A--------------------------------------|
E--------------------------------------|


Riff 2
Distorted guitar w/keyboards:
E------------------------------------------------------------
B------7h8p7---7-8------10h12p10-----------------------------
G---9--------9--------12--------12p11-12--11-11-11p9----9-11-
D----------------------------------------------------12------
A------------------------------------------------------------
E------------------------------------------------------------

E-----------------------|
B---------7h8p7---------|
G----9-9-------9p7-9----|
D-----------------------|
A-----------------------|
E-----------------------|



Rhytme: End 1: End 2: (Little fill)
Solo and verse:
E------------------------|---------------------|---------|-----------|
B------------------------|---------------------|---------|--8~~--7~--|
G--9-11-12---14-7--11-9--|-9p7-----------------|---5-4---|-----------|
D--9-11-12---14-7--11-9--|----10p9-10-9-7------|---5-4---|-----------|
A--7-9--10---12-5--9--7--|----------------10---|---3-2---|-----------|
E------------------------|---------------------|---------|-----------|




Harmony:
E-------------------------------------------------
B-------------------------------------------------
G-------7-----------------------------------------
D---9----10-9--7-9--10-9--7----7----7-7/9---------
A---------------------------10---10---------------
E-------------------------------------------------

End w/:
E----------------------------------------|---------|
B----------------------------------------|---------|
G-------7--------------------------------|--10-9---|
D---9----10-9-7-9-10--9-7---7------------|--10-9---|
A-------------------------10--10p9--7----|--8--7---|
E----------------------------------------|---------|



Outro:
E-----------------------
B-----------------------
G--7-9---12-9---7-9-----
D--7-9---12-9---7-9-----
A--5-7---10-7---5-7-----
E-----------------------

E-------------------------------------------------------------|
B-------------------------------------------------------------|
G-------------------------------------------------------------|
D---9-9----12-12-----7-7----5-5----5-5----7-7----9-9----9-9---|
A--7-7-7--9--9--9---5-5-5--3-3-3--3-3-3--5-5-5--7-7-7--7-7-7--|
E-------------------------------------------------------------|


E------------------------------------------------------------
B-------8---------------7-8-10-8--------12-12-10-------------
G--7-9----9--7--9~~~~~9----------9--------------12-11-9------
D------------------------------------------------------------
A------------------------------------------------------------
E------------------------------------------------------------


E---------10------------------------------------|
B---12--12--12--10--10------12-12-10------------|
G-----------------12--12-------------12-11-9----|
D------------------------14---------------------|
A-----------------------------------------------|
E-----------------------------------------------|

End W/:
(quitely fading out...)
E-----------------|
B---------8-------|
G-------9-----9---|
D-----9-----9-----|
A---7-------------|
E-----------------|

Los que quieran que les pase alguna tablatura de guitarra solo comenten o manden un mensaje !!!! espero que les guste y que viva el heavy metal

9 comentarios - Acordes faciles para guitarra

Frank2010
seguí así pero te falto el e mision imposible jajaj
kalanvre -1
Podes poner algo de Luis miguel? Buena che, buen post
feredge -1
cuando pueda y pasaron 3 meses