canciones faciles para guitarra acustica

los que empezaron hace poco a tocar la guitarra tenes que saberte estos temas:

Como leer una Tablatura?

1ra cuerda->Mi - E||-----------------|
2da cuerda->Si - B||--1--------------| <- El nº q sale, es el numero del traste a tocar
3ra cuerda->Sol- G||----0------------| <- El 0 es la cuerda al aire
4ta cuerda->Re - D||-----------------|
5ta cuerda->La - A||-----------------|
6ta cuerda->Mi - E||-----------------|

Tan solo - los piojos (bajo, pero igual en guitarra)

|---------------------|---------------|-------------|
| --------------------|---10----------|-------------|
| --10-10-------10-9--8----10--------|---7-7-8-9-10|
| --------10-10-------|--------10-9-8-|-8-----------|

Satisfaction – the Rolling stones

e--------------------------------
B--------------------------------
G--------------------------------
D2-2--245--5555422-2--245--554422-
A2-2--245--5555422-2--245--554422-
E--------------------------------

Los Simpsons theme (esta alreves)

Mi - E----------------------------------------------------
La - A----------------------------------------------------
Re - D----------------------------4-4-4-------------------
Sol- G------------------------2---------0-----------------
Si - B-1-------------------1------------------------------
Mi - e-----0---2--5-3-0-----------------------------------


----------------------------------------------------------
----------------------------------------------------------
----------------------------4-4-4----4-4-4----------------
------------------------2---------0----------0--------------
-1-------------------1------------------------0---2-2-2-3-
-----0---2--5-3-0-----------------------------------------

'The Godfather' / 'El Padrino', por Slash de los Guns N' Roses
__________________________________________________________________


e|----10-13-12-10-13-10-12-10-------------------------------------|
B|-10-------------------------11-13-10----------------------------|
G|----------------------------------------------------------------|
D|----------------------------------------------------------------|
A|----------------------------------------------------------------|
E|----------------------------------------------------------------|

|----10-13-12-10-13-10-12-10-------------------------------------|
|-10-------------------------/10-9-8-----------------------------|
|----------------------------------------------------------------|
|----------------------------------------------------------------|
|----------------------------------------------------------------|
|----------------------------------------------------------------|

|-----------/-------6-9-9----------------------------------------|
|----6-10-10-----/8---------------13-11-10-13-11-10-10-----------|
|-/7---------------------------10--------------------------------|
|--------------------------/12---------------------------11-12---|
|----------------------------------------------------------------|


Smoke on the water – deep purple (se toca con cualquier cuerda)
||------------------------------------------------------------
||------------------------------------------------------------
||--3---6---8--/--3----6---9-8-----/-3---6---8----6---3----
||--3---6---8--/- 3----6---9-8-----/-3---6---8----6---3----
||------------------------------------------------------------
||---------------------------------------------------------

Thunderstruck

INTRO //hacerlo rapido//:
e|------------------------------------------------------------------
B|0-4-0-7-0-4-0-7-0-4-0-7-0-4-0-7-0-4-0-7-0-4-0-7-0-4-0-7-0-4-0-7-0-
G|------------------------------------------------------------------
D|------------------------------------------------------------------
A|------------------------------------------------------------------
E|------------------------------------------------------------------

e|-------------------------------------------------------------------
B|0-5-0-8-0-5-0-8-0-5-0-8-0-5-0-8-0-5-0-8-0-5-0-8-0-5-0-8-0-5-0-8-0--
G|-------------------------------------------------------------------
D|-------------------------------------------------------------------
A|-------------------------------------------------------------------
E|-------------------------------------------------------------------

Tnt
e---------------------------------------------------------I
b---------------------------------------------------------I
g---------------------------------------------------------I
D--2------------5------7-----5-----7------5------2--------I
A--2------------5------7-----5-----7------5------2--------I
E---------------------------------------------------------I

Sunshine of your love

e|-----------------------------------------------------
b|-----------------------------------------------------
g|------------------------------------------------------
D|---77--5---7----------------------------- --------
A|---------------7-6-5--0--3---0------------------
E|----------------------------------------------------

e|-----------------------------------------------------
b|---------------------------------------------------
g|----------------7-6-5--0--3---0---------------
D|---77--5---7----------------------------- ---
A|-------------------------------------------------
E|-----------------------------------------------

e|-----------------------------------------------------
b|---------------------------------------------------
g|-------------------------------------------------
D|------------------------------- ----------------
A|-------5--55----8---3----/---5----55----8----3------5—55-555
E|-------5--55----8---3-----/--5----55----8----3------5—55-555

The eye of the tiger

e|--------------------------------------------------------------|
b|-------------------------------------------------------------|
g|--------------------------------------------------------|
D|--------------------------------------------------------|
A|----7--------7----5----7--/-----7----5---7--/----7---5----3--------|
E|----7--------7----5----7--/-----7----5---7--/----7---5----3----------------|


sweet child o´ mine by gun´s and roses

|--------------15----14-----|--------------15----14-----|
|-----15--------------------|-----15--------------------|
|--------14-12----14----14--|--------14-12----14----14--|
|--12-----------------------|--12-----------------------|
|---------------------------|---------------------------|
|---------------------------|---------------------------|

C
|--------------15----14-----|--------------15----14-----|
|-----15--------------------|-----15--------------------|
|--------14-12----------14--|--------14-12----------14--|
|--14-----------------------|--14-----------------------|
|---------------------------|---------------------------|
|---------------------------|---------------------------|

G
|--------------15----14-----|--------------15----14-----|
|-----15--------------------|-----15--------------------|
|--12----14-12----14----14--|--12----14-12----14----14--|
|---------------------------|---------------------------|
|---------------------------|---------------------------|
|---------------------------|---------------------------|


back in black (intro)

E D A R
e|-------------------------------------|--------------3-0------------------|
B|------------------3-3-3--------------|--------------------3-0------------|
G|------------------2-2-2----------2-2-|2-----------------------2 0--------|
D|-2----------------0-0-0----------2-2-|2----------------------------------|
A|-2-------------------------------2-2-|2----------------------------------|
E|-0-----------------------------------|-----------------------------------|

E D A end rhythm figure 1
e|------------------------------------|-----------------------------------|
B|-----------------3-3-3--------------|-----------------------------------|
G|-----------------2-2-2---------- 2-2-|2----------------------------------|
D|-2---------------0-0-0----------2-2-|2----------------------------------|
A|-2--------------------------------2-2-|2----------------------------------|
E|-0----------------------------------|---- -7-4.---7-5.---7-6.--7-7-------|

Highway to hell

INTRO:
A D/f# G D/f# G D/F# G D/F# A
E------------------------------------------------------------------------------
B-----------2--2--2-----------3--3--3------3--3--3-----3--3--3------------2--2-
G-----------2--2--2-----------2--2--0------2--2--0-----2--2--0------2-----2--2-
D-----------2--2--2-----------0--0--0------0--0--0-----0--0--0------0-----2--2-
A-----------0--0--0-------------------------------------------------------0--0-
E------------------------------------------------------------------------------

Stairway to Heaven

INTRO:
Am E6/G# C/G Bm7 FMaj G/B A5
e-----5--7----7--8----8--2---2-0-------0---------------|------------------
B----5-----5-------5-------3-----1---1---1-------------|------------------
G---5-------5--------5------2------2-------2---0--2-2--|------------------
D--7-----6-------5-------4-----3--------------------2--|------------------
A----------------------------------------------2--0-0--|0--3(A)8--7-------
E------------------------------------------------------|------------------

Fijense la primera parte se repite dos veces y alprincipio hagan una media seguilla en el 5º traste y pongan el dedo 3 en el traste 7 de la cuarta cuerda, y de ahi se van a ir dando cuenta, por que lo que tiene esta cancion es que es todo arpegiado nada mas.
Bueno seguimos con la segundo parte

2°PARTE
G/B C Bm7 FMaj7 G/B C G Dsus4-D
e-------------0---2-----2--0------0------|----------------3----3----3(A)2-2
B-------------------3--------1-----------|------1------1--------------3---3
G------------0--------2--------2----2----|---------0--------4-------2------
D----------2------4--------3-------------|-----------2-------5------0-----0
A--0-2--3------------------------------0-|0--2--3--------------------------
E----------------------------------------|----------------3----------------


Masacre en el puticlub – los redondos

(V)= VIBRATO

-7-7-7-7--6-6-6-6--5-5-5-5-----5----12/2----------
-6-6-6-6--5-5-5-5--4-4-4-4-----4------------------
-7-7-7-7--6-6-6-6--5-5-5-5-----5------------------
--------------------------------------------------
--------------------------------------------------
--------------------------------------------------
___
-------------------------------------------------- |R
-------------------------------------------------- |E M
----3------------3------------3------------------- |P U
------2--4----------2(V)---------2---4------------ |I C
----------------------------------------3-3-3--3(v) |T H
--2-----------2------------2---------------------- |E O
¯¯¯
DESPUES HACE ASI: ___
-------------------------------------------------- |
-------------------------------------------------- |R
-----------------4--2----------------------------- |
------------1--4------4(V)------------------------ |E
-2-2-2-2-2---------------------------------------- |
-------------------------------------------------- |P
| X

-------------------------------------------------- |I
-------------------------------------------------- | 2
-----------------6--4(V)-----4--3(V)(V)----------- |T
------------3--6----------6----------------------- |
-4-4-4-4-4---------------------------------------- |E
-------------------------------------------------- |



Tren de las 16 - pappo

e--------------------------------------------------------------------------
B--3--3--3--3-----------------------------------------------------------
G--2--2--2--2---5--5--5--5--------------------------------------------
D-----------------5--5--5--5---5-5-5-5-5---9-9---9-----------------
A- ---------------------------- -5-5-5-5-5---9-9---9------------------
E-----------------------------------------------------------------------

e--------------------------------------------------------------------------
B-------------------------------------------------------------------------
G------------------------------5-5-5-5-5-5-5-5------------------------
D--5- 5--5--5--5--5--5--5--5-5-5-5-5-5-5-5-----------------------
A- 5--5--5--5--5--5--5--5--------------------------------------------
E------------------------------------------------------------------------ X4

e--------------------------------------------------------------------------
B--3--3--3--3-----------------------------------------------------------
G--2--2--2--2---5--5--5--5--------------------------------------------
D-----------------5--5--5--5---5-5-5-5-5---4---5--------------------
A- ------------------------------5-5-5-5-5---4---5---------------------
E--------------------------------------------------------------------------

Eso es todo, gracias por ver

16 comentarios - canciones faciles para guitarra acustica

mola100 +2
buen post me ha ayudado bastante...
Perales158 +2
astan bien las canciones pero son para guitarra electrica
evilzerox +2
en acustica tambien se puede hacer, no suena igual, pero parecido.. gracias me sirvio mucho
evilzerox
por cierto la de los simpsons dices que esta al reves, exactamente como? que esta alreves? disculpa mi ignoracia
poterdirty
O_o satisfaccion d los rollings¡
me encantaria pero hoy me compre la guitarra acustica
haha si hubisese sido la electrica ya estaria sordo
F5TiTo05 +1
lo de que esta al reves la cancion de los simpsons es que en la tablatura sale que la 6 cuerda osea E esta arriva mientras que tendria que estar la primera cuerda arriva entonces cuando la quieras tocar tenes que tocarla primera, segunda, tecera y cuarta cuerda de la guitarra nose si me explico bien... por lo demas exelente post sirve para las dos violas yo tambien recien empiezoo a sacar velocidad asii que todas estas vienen de 10
jorge_ma666ot
gran post, muy bueno para los que estamos aprendiendo a tokar guitarra
pdta : niculs me puedes dejar toda la tab de satisfaccion de los rolling stones, no la e encontrado en la web xD
maagze +4
la de deep purple pusiste cualquier cosa es :
0-3-5-|-0-3-6-5-|-0-3-5-3-0
Chonix9 +1
no smoke on the wather esta bien asi maagze
ivan50cent
buen post &quot;&quot; me sirve mucho&quot;&quot; xD
te dejo mis 10 puntos
link2012 +1
crea un tutorial para tocarla bien como por ejemplo los circulos
Los comentarios se encuentran cerrados