Tablatura: "Las mañanitas"

Bueno en mi tercer post les traigo la tablatura de las mañanitas para guitarra es la mas facil que encontre dando vueltas por internet
bueno sin mas que decir aqui esta:




1)--0--0--5--5--4--5--7--4--5--7--9--5--7--9--10--10--10--/
2)-------------------------------------------------------/
3)------------------------------------------------------/


1)--9--7--5--4--7--5--4--7--9--10--7--5--9--7--4--4--5--7--9--/
2)-----------------------------------------------------------/
3)----------------------------------------------------------/


1)--5--9--7--4--4--5--7--9--5--5--10--10--10--10--9--5--4--/
2)--------------------------------------------------------/
3)-------------------------------------------------------/


1)--5--7--9--10--7--5--0--5--4--5--5--4--5--5--5--9--7--5--4--/
2)-----------------------------------------------------------/
3)----------------------------------------------------------/


1)--5--7--7--0--7--6--7--7--6--7--7--9--10--9--9--7--4--5--5--/
2)-----------------------------------------------------------/
3)----------------------------------------------------------/

y si no saben leer tablaturaso de plano no saben tocar la guitarra aqui les dejo la pagina web que me enseño a mi a leerlas:
http://www.guitarrarockera.com/

16 comentarios - Tablatura: "Las mañanitas"

@pecador1706
pues yaa me la aprendi pero como que le hace falta algo de todas formas gracias
@mexinaco_rock +1
muy chido carnal, aunque yo creo que no esta completa
@rap96
kamikaze76 dijo:

medio pobre, no?


pecador1706 dijo:pues yaa me la aprendi pero como que le hace falta algo de todas formas gracias


mexinaco_rock dijo:muy chido carnal, aunque yo creo que no esta completa


miren yo me aprendi la primera parte de otra manera
en el post viene
1)--0--0--5--5--4--5--7--4--5--7--9--5--7--9--10--10--10--/
2)-------------------------------------------------------/
3)------------------------------------------------------/

y yo me lo aprendi asi:

1)--0--0--5--5--4--5--7--9--5--7--9--10--10--10--9--7--4--/
2)-------------------------------------------------------/
3)------------------------------------------------------/
@amaterasux +2
muy bueno, ami si me sirvieron porqe se la queria dedicar por mi a alguien q cumplio años y como soy principiante en esto de la guitarra y esto es solo con una cuerda me sirvio mucho +10
@avklol -2
me tienes asta la madre con las tablaturas pongan los acordes
@gokuzz
pues como que no suena como van las mañanitas
@plazareyesjj +2
esta mas chida esta jajajajaja

LAS MAÑANITAS TRADICIONALES

1--------------0------0-2-----0-2-3----3-3-2
2-----3---3-2-3---2-3-------3---------------
3-2-2---------------------------------------
4-------------------------------------------
5-------------------------------------------
6-------------------------------------------
Estas son las mañanitas que cantaba el rey David. Hoy por ser

1----0-----0-------0-2-3-0------------
2------3-2---3-2-3---------3----------
3-------------------------------------
4-------------------------------------
5-------------------------------------
6-------------------------------------
día de tu santo te las cantamos aquí.

1-2-0-----0-2---2-0------0-2-------3--
2----3-2-3---3-----3-2-3-------3-3----
3-------------------------------------
4-------------------------------------
5-------------------------------------
6-------------------------------------
Despierta mi bien despierta mira que ya amaneció. Ya

1---3-5-3-2-------0-2-3-0-------------
2----------3-2-3---------3------------
3-------------------------------------
4-------------------------------------
5-------------------------------------
6-------------------------------------
los pajaritos cantan la luna ya se metió.

1--------------------------7-5--------
2---8----7-8-8--7-8-8----8-----8-7-8--
3-7-----------------------------------
4-------------------------------------
5-------------------------------------
6-------------------------------------
¡Qué linda está la mañana en que vengo a

1-5-5----5----5-5---5-5---5-8-7--7-5-5
2-------7----8-----8------------------
3-------------------------------------
4-------------------------------------
5-------------------------------------
6-------------------------------------
saludarte. Venimos todos con gusto y placer a

1---------
2-7-8-8---
3---------
4---------
5---------
6---------
felicitarte!

1----------------5-5---5-7-8---7-8-8-7-8----8-7-5
2--8-7---5-7---8---------------------------------
3------------------------------------------------
4------------------------------------------------
5------------------------------------------------
6------------------------------------------------
Ya viene amaneciendo ya la luz del dia nos dió.Levantarte
1---------5-7-7--7-8-7--7-5-5--------
2-8---7-8------------------------7-8-
3------------------------------------
4------------------------------------
5------------------------------------
6------------------------------------
de mañana, mira que ya amaneció.
@plazareyesjj
pero faltaun cacho, si alguien se lo sabe mandemelo que me urge
@ultra_150
Y ES PARA EL CUMPLE AÑOS D MI HERMANO
en todas partes ay diferentes y no c cual de todas es para aprendermela
@haney247
me creare una y vemos como anda
@kidekers
Es una mierda tu pst :c