Hola T! Estos son los punteos:



El Himno a la Alegria! facil Y DIBERTIDO LUSCANSE


||-0--0--1--3-|-3--1--0----|----------0-|-0----------||
||------------|----------3-|-1--1--3----|------3-----||
||------------|------------|------------|------------||
||------------|------------|------------|------------||
||------------|------------|------------|------------||
||------------|------------|------------|------------||


||-0--0--1--3-|-3--1--0----|----------0-|------------||
||------------|----------3-|-1--1--3----|-3----1-----||
||------------|------------|------------|------------||
||------------|------------|------------|------------||
||------------|------------|------------|------------||
||------------|------------|------------|------------||


||-----0—-----|-0-1--0-----|-0-1—0------|------------||
||-3-----1--3-|--------1--3|---------3--|1—3---------||
||------------|------------|------------|---------0--||
||------------|------------|------------|------------||
||------------|------------|------------|------------||
||------------|------------|------------|------------||


||-0—-0—-1—-3-|-3--1--0----|----------0-|------------||
||------------|----------3-|-1--1--3----|-3---1------||
||------------|------------|------------|------------||
||------------|------------|------------|------------||
||------------|------------|------------|------------||
||------------|------------|------------|------------||


IN THE END DE LINKIN PARK!!!

e-----------------------------------------------------
b-----------------------------------------------------
g----3--3--------------------------------------------- x 4
d-1--------4--3--3--3--3--4--1------------------------
a-----------------------------------------------------
e----------------------------------------------------


Cumpleaños Feliz

1.-------------------------------|---------------------------|-----------3---0--|--------------------|-1---1---0-------|----------
2.----------------------1----0--|------------------3---1---|-------------------|--1---1---0--------|----------------1-|--3---1-
3.---0---0---2---0-------------|-0---0---2---0------------|--0---0-----------|-----------------2-|-------------------|---------
4.-------------------------------|---------------------------|-------------------|--------------------|------------------|----------
5.-------------------------------|---------------------------|-------------------|--------------------|------------------|----------
6.-------------------------------|---------------------------|-------------------|--------------------|------------------|----------

Mario bross

1.------------------|--------------------------------------|---0-----3-----5--|----1-----3-----0----------------------------
2.-----1------------|-------------0-----------------------|-------------------|------------------------1-----3-----0--------
3.----------0-------|-----2------------3------2------0---|-------------------|-----------------------------------------------
4.----------------2-|--------------------------------------|-------------------|---------------------------------------------
5.-------------------|-------------------------------------|-------------------|---------------------------------------------
6.-------------------|-------------------------------------|-------------------|---------------------------------------------


Los Simpsons

1. -------------------------------------------------------------------------------------------------------------
2. -------------------------------------------------------------------------------------------------------------
3. ------------------------2-----0-----------------------------------------------------------------------------
4.------------2-----4------------------2-----------------------------------------------------------------------
5.-----3--------------------------------------3--0-------------------------------------------------------------
6.-------------------------------------------------------2-----2-----2-----3-----2-----2-----2-----3-----3---

Dragon Ball GT Mi Corazon encantado.

1.---3---3---0---1---3---5---1---0--------0---0-------------0---1---0------------------------------5---3------------0---1---0--------------------------------
2.-----------------------------------------3-------------1---3-----------------3---1---0------------1------------1---3-----------------3---1---3---1---0---1---
3.---------------------------------------------------------------------------------------------2---2-----------------------------------------------------------------
4.--------------------------------------------------------------------------------------------------------------------------------------------------------------------
5.--------------------------------------------------------------------------------------------------------------------------------------------------------------------
6.--------------------------------------------------------------------------------------------------------------------------------------------------------------------



BUENO AHORA ROCK!!!!

Tan solo (Los Piojos)

1.------------------------------------10--------
2.---10---12---12---10---12------------------
3.------------------------------------------9----
4.------------------------------------------------
5.-----------------------------------------------
6.-----------------------------------------------


Como Ali (Los Piojos)

1.------------------------------------------------------1---0------------------
2.-----------------3-----------------3--------------------------1---3---------
3.---0---2---3-------0---2---3--------0---2---3-----------------------------
4.------------------------------------------------------------------------------
5.------------------------------------------------------------------------------
6.------------------------------------------------------------------------------

Caña Seca y un Membrillo (Patricio Rey y sus Redenditos de Ricota)

1.--------2-------------------------------------------3---------------
2.-------------3--------------------0------------0-------0-----------
3.------------------2----------0------------0-----------------0------
4.---0----------------------2---------------------------------------0--
5.-----------------------3--------------------------------------------
6.---------------------------------------3----------------------------

Persiana Americana (Soda Stereo)

1.------------3---2--------------------3---2---------------------3---2---------------
2.---1---3------------3---1---1---3----------3---1---1---3------------3---0--------
3.--------------------------------------------------------------------------------------
4.--------------------------------------------------------------------------------------
5.--------------------------------------------------------------------------------------
6.--------------------------------------------------------------------------------------

Hay una Bomba en el Colegio (Attaque 77)

1.---------------------------------------------------------------------------------------------------------------------------------------------------------
2.---7---7------------7---7------------7---7---6---6------------6---6------5---5------------5---5------------5---5---4---4------------4----4-------
3.------------6---6------------6---6----------------------8---8------------------------4---4------------4---4----------------------6---6--------------
4.---------------------------------------------------------------------------------------------------------------------------------------------------------
5.---------------------------------------------------------------------------------------------------------------------------------------------------------
6.---------------------------------------------------------------------------------------------------------------------------------------------------------

Amigo (Attaque 77)

1.-----------------------------------------------------------------------------------------------------------------------------------------------------------------
2.--------2---0--------2---0-------2---0-------3---2-------3---2--------3---2--------3---2-------3---2-------3---2--------3---2---2-----------------------
3.---------------------------------------------0------------0------------0-------------0------------2------------2------------2-----------------4---2---4------
4.---4-------------4------------4---------------------------------------------------------------------------------------------------------------------------------
5.-----------------------------------------------------------------------------------------------------------------------------------------------------------------
6.-----------------------------------------------------------------------------------------------------------------------------------------------------------------

Sacate la mierda (Carajo)

1.---15---15---15---15---15------------------------------------------------------------------------------------------
2.-----------------------------------15---15---15---16---16---16---16-----------------------------------------------
3.--------------------------------------------------------------------------------15---15---15-------------------------
4.------------------------------------------------------------------------------------------------------------------------
5.------------------------------------------------------------------------------------------------------------------------
6.------------------------------------------------------------------------------------------------------------------------

Rezo por Voz (Charly Garcia)

1.---2-------------3---2-------------------------------------------
2.--------3-----------------3-------1---3-------1---1---3---3----
3.-------------2-----------------2-----------2---------------------
4.------------------------------------------------------------------
5.------------------------------------------------------------------
6.------------------------------------------------------------------

Una Nueva Noche Fria (Callejeros)

1.-------------------7--------------------------------------------7------------------------10-------------------------
2.---7---8---10-------10---8---8---7--------7---8---10--------10---8---8---7-------------------------------------
3.--------------------------------------------7-------------------------------------------------------------------------
4.-----------------------------------------------------------------------------------------------------------------------
5.-----------------------------------------------------------------------------------------------------------------------
6.-----------------------------------------------------------------------------------------------------------------------


In the End (Linkin Park)

1.-----------------------------------------------------------------------
2.-----------------------------------------------------------------------
3.--------3---3------------------------------------3---3---------------
4.---1-------------4---3---3---3---3---4---1------------4---3--------
5.-----------------------------------------------------------------------
6.-----------------------------------------------------------------------

Smoke on the Water (Deep Purple)

1.------------------------------------------------------------
2.------------------------------------------------------------
3.---0---3---5---0---3---6---5---0---3---5---3---0-------
4.---0---3---5---0---3---6---5---0---3---5---3---0-------
5.------------------------------------------------------------
6.------------------------------------------------------------

Come as You are (Nirvana)

1.-------------------------------------------------------------------------------------
2.-------------------------------------------------------------------------------------
3.-------------------------------------------------------------------------------------
4.-------------------------------------------------------------------------------------
5.----------------------0--------0----------------------2------------2---------------
6.---0---0---1---2--------2--------2---2---1---0-------0---0--------0---1---------

Heart Shaped Box (Nirvana)

1.----------------------------------------------------------------------------------------------------------------------------------------------------------
2.----------------------------------------------------------------------------------------------------------------------------------------------------------
3.-------------2------------------------------------------------------------2------------------------------------------------------------------------------
4.--------2--------2------------3------------0--------0-------------2--------2-------------3-------------0--------0-------4---4---4---4---------------
5.---0----------------------3------------0--------0--------0---0-----------------------3-------------0--------0--------0---------------------3---3-----
6.----------------------3------------0-----------------------------------------------3-------------0------------------------------------------------------- en re


One (Metallica)

1.--------------------------------------------------------------------------------------------------------------------------------------------------------
2.---------------------------------------------------------------------------------------------------------------------------------------------------------
3.-----------------------------------------------------------------------------0---------------------------------------------------------------------------
4.--------4--------0-------4-------0-------4-------0--------4--------0------------4--------0--------4--------0--------4--------0----------------------
5.---2--------2-------------------------2-------2-------------------------------2--------2--------0--------0--------------------------------2-------2---
6.----------------------3-------3-------------------------3--------3---------------------------------------------------3--------3--------0-------2-------



Aprendalos yo tengo 10 años y me toco todo
y un regalo el famoso...
NYAN CAT!
|-14--16-----------------------------------------------14-16-11-14-9-11-7-9-7-|
|--------14-16--14-15-14-12---12--14-15--15-14-12-14-15-----------------------|
|-----------------------------------------------------------------------------|
|-----------------------------------------------------------------------------|
|-----------------------------------------------------------------------------|
|-----------------------------------------------------------------------------|