Este pequeño post lo hice xq un amigo (the_newbt) me pidio algunos ejercicios para tocar blues y como lo prometido es deuda grabe un videito,hay t va brother solo espero q les guste

EJERCICIOS BLUES





link: http://www.youtube.com/watch?v=eBv5LWkmiE0

bueno eso es todo espero q les aya gustado saludos a todos y a rockear!!!!

WENO AQUI ESTAN LOS TABS DE LOS TRES PRIMEROS EJERCICIOS ESPERO LES AYA GUSTADO Y GRACIAS POR LAS CRITICAS

EJERCICIO 1



-----------3-----3-------------------------------------------
--------3----6^----6---3------------------------------------
---5^-----------------------6--5--3------3/4---------------
----------------------------------------5--------5~~--------
---------------------------------------------------------------
---------------------------------------------------------------

--------------------------------------------------------1------
--------------------------------------------------------0------
----------3~~-----------------------------------------0-------
--3/4/5--------5--4--3-------------------------------0-------
----------------------------5--4--3-------------------2-------
---------------------------------------6---3---1--2---3------



EJERCICIO 2

-------3-----------------------------------------------------------3------
---6^----6--3-----------------------------------------------------3------
-----------------5^--5^/3-----3---------------------------------4------
-----------------------------5----5--3--5--3---------------------3------
------------------------------------------------5--4--3-----------5-------
----------------------------------------------------------6---3~--3-------



EJERCICIO 3

-------6—8/9/8/6-----6-------------------------------------------------3---------3--------6^--6~~
----8----------------8-----8--6--8--6---3/6/3-----------------------3----3—6^----6--3----------
----------------------------------------------------6/5/3-----3---5^---------------------------------
------------------------------------------------------------5------------------------------------------
-------------------------------------------------------------------------------------------------------
-------------------------------------------------------------------------------------------------------


SALUDOS A TODOS, PEACE AND LOVE