El post que buscas se encuentra eliminado, pero este también te puede interesar

El verdadero amor perdona , maná online


link: http://www.youtube.com/watch?v=Q21oI-UIdVI&feature=branded



Times New Roman]Y acá tenés el tab... funciona muy bien... yo mismo lo he tocado.... saludos!!!

Rating: 8.6/10 (405 votos)

INTRO:
RE#m LA#m SI FA
e----------------------------------------------
B------------------------------------------2---
G-3-3-3---3------------------------6-6-6--1-3--
D--------3-4-3-3-3----3--4-4-4---4---4----4-----
A--6----6----------1-2-4--2---2-4-6-------------
E-------------6--------------------------------

Tienes todos los espacios
e-------------------------
B-------------------------
G-3-3-3---3---------------
D--------3-4-3-3-3-----3--
A--6---6------------1-2-4-
E-------------6-----------
Inundados de tu ausencia
e-----------------------
B-------------------2---
G-----------6-6-6--1-3--
D4-4-4---4---4----4-----
A-2---2-4-6-------------
E-----------------------
Inundados de silencio
e-------------------------
B-------------------------
G-3-3-3---3---------------
D--------3-4-3-3-3-----3--
A--6---6------------1-2-4-
E-------------6-----------
No hay palabras, no hay perdón
e-----------------------6-
B-------------------------
G-----------6-6-6-3-1-----
D4-4-4---4---4--------/8--
A-2---2-4-6---------------
E-------------------------

RE#m LA#m
Tú me tienes olvidado
e-------------------------
B-------------------------
G-3-3-3---3---------------
D--------3-4-3-3-3-----3--
A--6---6------------1-2-4-
E-------------6-----------
SI FA#
No respondes al llamado
e---------------------------
B-----------------------2---
G-----------6-6-6-3-1--1-3--
D4-4-4---4---4--------4-----
A-2---2-4-6-----------------
E---------------------------

RE#m LA#m
No eches tierra a la palabra
e-------------------------
B-------------------------
G-3-3-3---3---------------
D--------3-4-3-3-3-----3--
A--6---6------------1-2-4-
E-------------6-----------

SI DO#
Me condenas a la nada No me entierres sin perdón
e------------------------
B-------------0-0-0-0----
G------------4-3-1-------
D4-4-4-4/3-1-------4-3---
A-2----------------------
E------------------------
RE#m LA#m
Mira, corazón, qué es el engaño
e-----4-6-1-1-2-4-
B-7-7-7-7-2-2-2-2-
G-8-8------2------
D--8-8------------
A-----------------
E-----------------
SI FA#
Se revierte y hace daño Se revienta en el aire Como pompas de
LA#m
jabón
e----1-2--------2---------------
B4-4-4-4-2-2-2-4-2-2-2-6--------
G4-4-----3-3-3-4-3-3-3-6--------
D-4-4-----4-4-4---4-4-4---------
A-------------------------------
E-------------------------------
RE#m LA#m
¿Cómo pude haberte yo herido
e-----4-6-9--9--
B-7-7-7-7-9--9--
G-8-8------10-10
D--8-8----------
A---------------
E---------------
SI FA#
Engañarte y ofendido Alma gemela, no te olvido Aunque me
LA#m
arranque el corazón
e9--9--7-7-7-6-4-2-2-2-2---6-
B9--9--7-7-7-7-6-4-2-2-2---6-
G-10-10-8-8---------3-3-3/6--
D----------------------------
A----------------------------
E----------------------------
SI DO#7 FA#
Ay! El rencor que nos envenena
e--------------------------------------
B---2-------2--------------2-----------
G----4-------4--------------3----------
D--4-------3--------------4------------
A-2-------4--------------4-------------
E--------------------------------------
LA#m
Nos hace daño
e---------------------
B--------2------------
G---------3-----------
D-------4-------------
A------4--------------
E---------------------
SI DO#
Aunque no regreses corazón
e--------------------------
B---2--------------2-------
G----4--------------4------
D--4--------------3--------
A-2-------------4----------
E--------------------------
FA# FA#7
Has de perdonarme
e-----------------1/9------
B--------------2-----------
G---------------3----------
D------------4-------------
A----------4---------------
E--------------------------

CORO :
SI
El verdadero amor perdona
Sim FA#
No abandona, no se quiebra
RE#m
No ambiciona
SI DO#
No revienta como pompas de jabón.

INTRO (CON PUNTEO)
RE#m LA#m SI FA

RE#m LA#m
Un error es algo humano
SI FA#
No justifico la traición
RE#m LA#m
Los amantes verdaderos se comprenden
SI FA#
Se aman y se olvidan del rencor
e------------
B---------2--
G-6-6-6--1-3-
D--4----4----
A------------
E------------
RE#m LA#m
La noche empieza a amotinarse
e-------------------------
B-------------------------
G-3-3-3---3---------------
D--------3-4-3-3-3-----3--
A--6---6------------1-2-4-
E-------------6-----------

e-1/6---------- ESTO LO HACE LA SEGUNDA GUITARRA CON EFECTO
B-------------- AL COMIENZO JUNTO CON EL RE#m
G--------------
D--------------
A--------------
E--------------

e--1/7------------ ESTO LO HACE AL LLEGAR AL SI
B-----------------
G-----------------
D-----------------
A-----------------
E-----------------
SI FA#
De sueños rotos y el dolor
e---------------------------
B-----------------------2---
G-----------6-6-6-3-1--1-3--
D4-4-4---4---4--------4-----
A-2---2-4-6-----------------
E---------------------------

RE#m LA#m
Y me revuelco en la cama
e-------------------------
B-------------------------
G-3-3-3---3---------------
D--------3-4-3-3-3-----3--
A--6---6------------1-2-4-
E-------------6-----------

e-1/6---------- ESTO LO HACE LA SEGUNDA GUITARRA CON EFECTO
B-------------- AL COMIENZO JUNTO CON EL RE#m
G--------------
D--------------
A--------------
E--------------

e--1/7------------ ESTO LO HACE AL LLEGAR AL SI
B-----------------
G-----------------
D-----------------
A-----------------
E-----------------
SI DO#
Aferrándome a la nada Implorando tu perdón
e------------------------
B-------------0-0-0-0----
G------------4-3-1-------
D4-4-4-4/3-1-------4-3---
A-2----------------------
E------------------------
RE#m LA#m
Mira, corazón, cuánto te extraño
e-----4-6-1-1-2-4-
B-7-7-7-7-2-2-2-2-
G-8-8------2------
D--8-8------------
A-----------------
E-----------------
SI FA#
Pasan días, pasan años Y, mi vida, se revientan
LA#m
Como pompas de jabón
e----1-2--------2---------------
B4-4-4-4-2-2-2-4-2-2-2-6--------
G4-4-----3-3-3-4-3-3-3-6--------
D-4-4-----4-4-4---4-4-4---------
A-------------------------------
E-------------------------------
RE#m LA#m
¿Cómo pude haberte yo herido
e-----4-6-9--9--
B-7-7-7-7-9--9--
G-8-8------10-10
D--8-8----------
A---------------
E---------------
SI FA#
Engañarte y ofendido Alma gemela, no te olvido
LA#m
Aunque me arranque el corazón
e9--9--7-7-7-6-4-2-2-2-2---6-
B9--9--7-7-7-7-6-4-2-2-2---6-
G-10-10-8-8---------3-3-3/6--
D----------------------------
A----------------------------
E----------------------------
SI DO#7 FA#
Ayyy! El rencor que nos envenena
e--------------------------------------
B---2-------2--------------2-----------
G----4-------4--------------3----------
D--4-------3--------------4------------
A-2-------4--------------4-------------
E--------------------------------------
LA#m
Nos hace daño
e---------------------
B--------2------------
G---------3-----------
D-------4-------------
A------4--------------
E---------------------

SI DO#
Aunque no regreses corazón
e--------------------------
B---2--------------2-------
G----4--------------4------
D--4--------------3--------
A-2-------------4----------
E--------------------------
FA# FA#7
Has de perdonarme
e-----------------1/9------
B--------------2-----------
G---------------3----------
D------------4-------------
A----------4---------------
E--------------------------
SI
El verdadero amor perdona
Sim FA#
No abandona, no se quiebra
RE#m
No ambiciona
SI DO#
No revienta como pompas de jabón.

RE#m LA#m SI FA#


RE#m LA#m
El verdadero amor perdona
e-------------------------
B-------------------------
G-3-3-3---3---------------
D--------3-4-3-3-3-----3--
A--6---6------------1-2-4-
E-------------6-----------

e-1/6---------- ESTO LO HACE LA SEGUNDA GUITARRA CON EFECTO
B-------------- AL COMIENZO JUNTO CON EL RE#m
G--------------
D--------------
A--------------
E--------------

e--1/7------------ ESTO LO HACE AL LLEGAR AL SI
B-----------------
G-----------------
D-----------------
A-----------------
E-----------------
SI FA#
El verdadero amor perdona
e---------------------------
B-----------------------2---
G-----------6-6-6-3-1--1-3--
D4-4-4---4---4--------4-----
A-2---2-4-6-----------------
E---------------------------


RE#m LA#m
Si el amor es verdadero
e-------------------------
B-------------------------
G-3-3-3---3---------------
D--------3-4-3-3-3-----3--
A--6---6------------1-2-4-
E-------------6-----------

e-1/6---------- ESTO LO HACE LA SEGUNDA GUITARRA CON EFECTO
B-------------- AL COMIENZO JUNTO CON EL RE#m
G--------------
D--------------
A--------------
E--------------

e--1/7------------ ESTO LO HACE AL LLEGAR AL SI
B-----------------
G-----------------
D-----------------
A-----------------
E-----------------

SI FA#
No se quiebra, no abandona
e---------------------------
B-----------------------2---
G-----------6-6-6-3-1--1-3--
D4-4-4---4---4--------4-----
A-2---2-4-6-----------------
E---------------------------

RE#m LA#m (SOLO RASGUEANDO LAS DOS GUITAR)
Si el amor es verdadero
SI
No se quiebra, no abandona
[/size]

Comentarios Destacados

9 comentarios - El verdadero amor perdona , maná online

@perezc- +5
buenisimo el tema!!
@yoit24
Que buen post
@jose51lomas +1
Excelente post !!!!
Te felicito , muy bien logrado.
Muchas gracias por compartir,
Saludos,
Jose
@ernest2595
a favs, solo me falta aprender a tokr guitarra jejeje