Megapost Guitarra (Canciones, Teoria, Acordes, Tabs)

------------------------|
|----15-------15----15-----15-------15----------------------------------|
|-14^--14--12-14^-----14^----14^------14^-p12----14p12--x-x----12^------|
|---------------------------------------------14--------x-x-------------|
|-----------------------------------------------------------------------|
|-----------------------------------------------------------------------|

|-----------------------------------------------------------------------|
|-----------------------------------------------------------------------|
|-----------------12h14p12----12^--------------------12h14p12-----12-12-|
|-14p12-14----x-x----------14--------14p12-14----x-x----------14--------|
|-----------------------------------------------------------------------|
|-----------------------------------------------------------------------|

|----------------------------------------------12-12-------15-15p12--15-|
|-------------------12-12-------15-15p12-------------15p12--------------|
|-------14-14p12-14-------14p12-----------------------------------------|
|-14p12-----------------------------------------------------------------|
|-----------------------------------------------------------------------|
|-----------------------------------------------------------------------|

|-14----12h15p12---------12-----------12-----------12-----------12------|
|----15----------15--15^----15p12--------15p12-15^----15p12--------15p12|
|----------------------------------14^-----------------------14^--------|
|-----------------------------------------------------------------------|
|-----------------------------------------------------------------------|
|-----------------------------------------------------------------------|

|------12-----------12-----------12--------------12-------15^-----------|
|--15^----15p12--------15p12-15^----15p12-----12----15p12---------------|
|---------------14^-----------------------14^---------------------------|
|-----------------------------------------------------------------------|
|-----------------------------------------------------------------------|
|-----------------------------------------------------------------------|

|--------------------15------12h15p12----12------12---------------------|
|-------------------------------------15-----15^-----15p12--------------|
|-----------------------------------------------------------14^-p12-14^-|
|-----------------------------------------------------------------------|
|-----------------------------------------------------------------------|
|-----------------------------------------------------------------------|

|---------------------------------------------------|
|-------15------------------------------------------|
|----------14^-p12-14^----14p12--------------12-----|
|----------------------14-------14------------------|
|---------------------------------------------------|
|---------------------------------------------------|


Megapost Guitarra (Canciones, Teoria, Acordes, Tabs)


ROCKABILLY


Video:










link: http://www.youtube.com/watch?v=AJ8IdvlW6UA

Tablatura :

Intro
G:------------------------------------------------------------------|
D:---9---------------6----------------------------------------------|
A:-7---7----------4---4------------7---------------9--------------|x1
E:---------------------------------5---5---------/-7---7------------|

G:-------------------|
D:-------------------|
A:--777-444------4h6-|x4
E:----------555-7----|

Verse
G:-------------------|
D:-------------------|
A:--777-444------4h6-|x4
E:----------555-7----|

Chorus 1
G:------------------------------------------------------------------|
D:------------------------------------------------------------------|
A:---4-5-4---4-5-4---6-7-6-997-6-4---4-5-4---4-5-4-997-6-4----------|x1
E:-55------55------77--------------55------55--------------7-5-4-2--|

Repeat:
Verse
Chorus 1
Verse

Chorus 2
G:------------------------------------------------------------------|
D:------------------------------------------------------------------|
A:---4-5-4---4-5-4---6-7-6-997-6-4---4-5-4---4-5-4-997-6-4----------|x1
E:-55------55------77--------------55------55--------------7~~~-----|

Bridge(NOTE:the timing changes to 3/4 here!)
G:--------------------------------------------------|
D:--------------------------------------------------|
A:-7~~~----5-4---------4-5-7~~~----5-4---------4-5--|x1
E:-------------5~~~--------------------7~~~---------|

G:--------------------------------------------------|
D:--------------------------------------------------|
A:-7~~~----5-4---------4-5-7~~~----5-4--------------|x1
E:-------------5~~~--------------------7~~~----1---|

Repeat:
Bridge
Verse
Chorus 1

Verse variation
G:------------------------------------------------------------------|
D:------------------------------------------------------------------|
A:-77777777777777664444444444444422---------------------------------|x1
E:---------------------------------55555555555555557777777777777777-|

G:-9-8-6---9-8-6---6-4-----6-4--------------------------------------|
D:-------9-------9-----7-6-----7-6-7-6-4---7-6-4---9-7-6---9-7-6----|
A:---------------------------------------6-------6-------9-------9--|x2
E:------------------------------------------------------------------|

Outro
G:------------------------------------------------------------------|
D:-------------------6----------------------------------------------|
A:-7-7-7----------4---4------------7---------------9--------------|x1
E:---------------------------------5---5---------/-7---7-----7-7-7--|

G:--------------------------|
D:--------------------------|
A:-7~~~------------------7--|x1
E:--------------------------|

musica

Hey Joe (JIMI HENDRIX)


Video :








link: http://www.youtube.com/watch?v=51VMCVdB2Ew

Tablatura :

Chords go like this: C-G|-D|-A|-E|-E


Intro:


E|----0---0----------|-----0----------------0-|--------------------------
B|--3s5-5s3----------|-----0----------------0-|-----0------7-----7-------
G|----------4s2--0h1-|-1---1------4---4---3-1-|---9-1--7---7-7---7-------
D|---------------0h2-|-2-----2----5---5---4---|---9-2--7h9---7h9---9----
A|-------------------|-------2--4s5---5---4---|-6s7-2--------------------
E|-------------------|-0-----0------0---0-----|-----0--------------------


Versos:

(C) (G) (D) (A) (E)
E|-------------------|------------------------|----------0---------------
B|----1---------3----|---------------5--------|----0-----0---------------
G|----0---------4----|-------7-------6--------|----1--1--1---------------
D|-------2---------5-|-7---7-7h9-------7------|-2--2--2------------------
A|-3-----3---------5-|-7h9---------7----7-----|-2-----2------------------
E|-----------3-------|------------5-----------|-0------------------------

Hey__ joe__ where you goin' with that gun in your hand.

(E)
E|-----------------------------------------------------------------------
B|--------------5--------------------------------------------------------
G|--------------x---9-----7----------------------------------------------
D|---------5b---6---9-----7----------------------------------------------
A|-----5------7-7---7-7h9------------------------------------------------
E|-6s7 --7---------------------------------------------------------------



(C) (G) (D) (A) (E)
E|--------------3----|---------2--------------|-------0------------------
B|----1---------3----|---3-3---3------2-3p2---|-------0------------------
G|----0---------0----|---2-2h4---2----2-2-2-2-|-------1--1---------------
D|-------2---------0-|-0---------0--2---4p2-2-|-2-2------2---------------
A|-3-----3---2-------|--------------0-------0-|-2-2------2---------------
E|-----------3-------|------------------------|-0-0----------------------

Hey__ Joe__ said where you goin' whith that gun in your hand.

(E)
E|---------------------------------0--0----------------------------------
B|-----3------------0--2-2h3-2p0---0--0----------------------------------
G|-2-s-4-4s2p0-1--1-1--2-2-----0-1-1--1----------------------------------
D|-------------2--2-2--2-2h4-2p0-2----2----------------------------------
A|-------------2--2-2------------2----2----------------------------------
E|----------------0--------------0----0----------------------------------

All right.

Solo:

(C) (G) Slight bend.
E|--------12-------------------------------------------------------------
B|--15b17----15-12-------------------------------------------------------
G|--------------12-14p12----12b------------------------------------------
D|-----------------------14----------------------------------------------
A|-----------------------------------------------------------------------
E|-----------------------------------------------------------------------



(D) (A) Hold.
E|-------12-12-----------------------------------------------------------
B|-15b17----15-12--------------------------------------------------------
G|----------------14-12--14p12-14b16-12~---------------------------------
D|------------------------------------------14--------------------------
A|-----------------------------------------------------------------------
E|-----------------------------------------------------------------------



(E) Slight bend. Hold Bends.
E|-----------------------------------------------------------------------
B|------------------12-------15b~---15b~---------------------------------
G|-12----12-12b-----12---------------------------------------------------
D|-12----12-----14--12---------------------------------------------------
A|-12h14-----------------------------------------------------------------
E|-----------------------------------------------------------------------


Let
(C) (G) ring.
E|-12-12-12-------12-----------------------------------------------------
B|-12-15-12-12----12-15-------12-----------------------------------------
G|----------14b16-------14b16----------14-12~----------------------------
D|-------------------------------12-14-----------------------------------
A|-----------------------------------------------------------------------
E|-----------------------------------------------------------------------



(D) (A)
E|----------12-15b17r15~-12----------12----------------------------------
B|-------12-----------------------15----15-------------------------------
G|--14b16-------------------14b16----------14b16r14----------------------
D|-----------------------------------------------------------------------
A|-----------------------------------------------------------------------
E|-----------------------------------------------------------------------



(E) Let ring. Sligth bend.
E|-----------------------------------------------------------------------
B|-----------------------------12b---------------------------------------
G|-12b~------------12----12----12b----------13---------------------------
D|---------14-----12----12h14------14------14---------------------------
A|-----------------12h14--------------------14---------------------------
E|---------------------------------------0-------------------------------



(C) (G) (D) (A) (E) Improvise !
E|------------------|-----------------|---0---------------|--------------
B|------------------|-----------------|---0-------7-7-9-9-|-7-----9------
G|------------------|-----------------|-----------7-7-9-9-|-7-and-9------
D|------------------|-----------------|-9---7h9b7-7---9---|-7-----9------
A|--3---------2-3-4-|-5---------4-5-6-|-7-----------------|--------------
E|----0-1-2-3-------|---2-3-4-5-------|-0-----------------|--------------

guitarra

Thunderstruck (AC DC)


Video:









link: http://www.youtube.com/watch?v=v90VBH1htxM

Tablatura:

INTRO //hacerlo rapido//:
e|------------------------------------------------------------------
B|0-4-0-7-0-4-0-7-0-4-0-7-0-4-0-7-0-4-0-7-0-4-0-7-0-4-0-7-0-4-0-7-0-
G|------------------------------------------------------------------
D|------------------------------------------------------------------
A|------------------------------------------------------------------
E|------------------------------------------------------------------

e|-------------------------------------------------------------------
B|0-5-0-8-0-5-0-8-0-5-0-8-0-5-0-8-0-5-0-8-0-5-0-8-0-5-0-8-0-5-0-8-0--
G|-------------------------------------------------------------------
D|-------------------------------------------------------------------
A|-------------------------------------------------------------------
E|-------------------------------------------------------------------

//repetir estas últimas 2 tablaturas 2 veces//

______________________________________________________________________

RIFF PRINCIPAL //también hacerlo rápido//:
e|----------------------------------------------------------------
B|-0-12-0-10-0-9-0-10-0-9-0-7-0-9-0-5-0-4-0-7-0-4-0-5-0-4-0-5-0-4-
G|----------------------------------------------------------------
D|----------------------------------------------------------------
A|----------------------------------------------------------------
E|----------------------------------------------------------------
o :
//esta última tablatura se repite hasta el estribillo//


'Aaahh ahh ahha ahh ahhhh
Thunder! (x9)'

'I was caught, In the middle of a railroad track (Thunder)
Looked around, And I knew there was no turning back (Thunder)
My mind raced, And I thought what could I do? (Thunder)
And I knew, There was no help, no help from you (Thunder)'


'Sound out the drums
Beatin' in my heart
The thundering guns!
Tore me apart'


'You've been... (*)T H U N D E R S T R U C K!'

//(*)en esta parte hace SOLO UN CAMBIO, UN ACORDE DE QUINTA, y luego sigue con el riff principal://
e|----
B|----
G|-4--
D|-4--
A|-2--
E|----


'Rode down the highway, Broke the limit,
we hit the town
Went through to Texas, yeah Texas!
And we had some fun'

'We met some gals,
Some dancers who gave us good times!
Broke all the rules, played all the fools
Yeah, yeah, they, they, they blew our minds'



'And I was shakin' at the knees!
Could I come again please?!
Yeah the ladies were too kind!'

'You've been - thunderstruck,
thunderstruck
Yeah yeah yeah, thunderstruck
Yeah
Oh, thunderstruck, yeah'


'Now we're shaking at the knees
Could I come again please?'

_____________________________________
SOLO:
//Si vieron el video, ésta es la parte en la que Angus se 'tira' con la cabeza al público, se agacha y se para, camina con las rodillas, en fin... un kapo... ahí vamos://

E-------------------|------------------------|--------------------------|
B-------------------|-9--9-------------------|-10---------9-------------|
G-------------------|-9--9-------------------|-9----------9-----9b(11)--|
D-------------x----|-9--9------9------------|-11---------9-------------|
A-------------x----|------------------------|--------------------------|
E-------------------|------------------------|--------------------------|

E-------------------|------------------------|--------------------------|
B-------------------|------------------------|--------------------------|
G-------------------|------------------------|--------------------------|
D-------------------|-----------4----------2-|-2------------------------|
A---------------x/--|-2---------2----------0-|-0----------2-------------|
E---------------x/--|-0----------------0-2---|------------0-------------|

E-7-------------------------------|-------------------------------------|
B---10-7---7----------------------|-------------------------------------|
G--------9---7--------------------|-------------------------------------|
D--------------9--------------7--|-7--------------9-----------9b(11)---|
A-------------------------/9------|-------------------------------------|
E---------------------------------|-------------------------------------|

E---------------------------------------|------------------------------17b-|
B---------------------------------------|----------------------------------|
G------7-9---11p9p7--11p9p7----11p9p7---|-7b(9)---r7-----------------------|
D----9----------------------9---------9-|----------------9-----------------|
A---------------------------------------|----------------------------------|
E---------------------------------------|-----------------------0--0-------|

E-(19)-17-14---------------------17-14------------|
B-----------17b(19)-17-15-17b(19)-----17-18-17-15-|
G-------------------------------------------------|
D-------------------------------------------------|
A-------------------------------------------------|
E-------------------------------------------------|

E------------------------------------------|
B----15b(17)-15b(17)-15b(17)--------------|
G-16--------------------------------------|
D------------------------------------------|
A------------------------------------------|
E------------------------------------------|

E------------------|-------------------------|----------------------|
B------------------|-------------------------|----------------7-----|
Go-------------7---|-7----9-7-9b(11)--9p7----|----------------7-----|
Do-4---2-----9---9-|----------------------9--|--4------2----9-----9-|
A--2---0-----------|-------------------------|--2------0------------|
E------------------|-------------------------|----------------------|

E--------------------------------||-----------|----------------|
B-7----9---7-9b(10)-----9p7------||-----------|----------------|
G-7----9---7-9b(11)-----9p7------||-----------|----------------|
D----------------------------9---||-----------|------------x--|
A--------------------------------||-----------|------------x-|
E--------------------------------||-----------|---------------|
_____________________________________

//Aca volvemos con el riff Principal, ya//

'Ahh ahh ahh ahh'

'Thunderstruck, thunderstruck
Yeah yeah yeah, thunderstruck
Thunderstruck, yeah, yeah, yeah'

'Said: yeah, it's alright
We're! Doing fine Yeah, it's alright
We're! Doing fine ...So fine'


_______________________________________
//y aca hay otro solo, un Outtro, pero no lo sé, se puede improvisar facilmente usando el solo anterior, es decir,
en la Escala de Mi (E), aca se las dejo cualquier cosa. OJO, esta es la Escala de Mi 'reducida', no el solo
Outtro, hagan improvisasiones, lo que quieran; pero NO es el solo://
:::::::::::::::::::::::::::::::::::::::::::

Escala de E (Mi):

e|--------------------------10-12-7-5-----------------3-5--
B|------------------8-10-12-----------7-5---------3-5------
G|--------------7-9-----------------------7-5--------------
D|----------7-9-------------------------------7-5----------
A|------7-9------------------------------------------------
E|-7-10----------------------------------------------------

e|-12-15-------15-17----------------------------------
B|-------12-15-------15-17----------------------------
G|-------------------------16-12-14-------------------
D|----------------------------------12-14-------------
A|----------------------------------------15-12-------
E|----------------------------------------------15-12-


//Claro, que no siempre va a salir bien, fijense, tomen 4 notas de aca que esten mas o menos cerca (o tocandose) y repitanlas, como por ejemplo:
e|12-15-------
B|------12-15-
G|------------
D|------------
A|------------
E|------------
//

::::::::::::::::::::::::::::::::::::::::::::

Letra Final:

'Thunderstruck...!, yeah, yeah, yeah,
Thunderstruck, thunderstruck, thunderstruck
Whoa baby, baby, thunderstruck
You've been thunderstruck, thunderstruck
Thunderstruck, thunderstruck, thunderstruck
You've been T H U N D E R S T R U C K!'


roll


Johnny B. Goode (CHUCK BERRY)


Video:








link: http://www.youtube.com/watch?v=21oMhIX4bb8

Tablatura:

s Slide
h Hammer on
p Pull of
b ex: 8b9, bend fret 8 up to 9



The timing is'nt 100% correct, so listen to the song for more accurat timing.
Intro:
e-----------------------|-5s6-6-6-5s6-6-6-5s6-6-|-6---------------------|------------------------|
B-------------------6-8-|-5s6-6-6-5s6-6-6-5s6-6-|-6--9--8--6------------|------------------------|
G---------------6s7-----|-----------------------|-------------6h7-------|------------------------|
D-----------------------|-----------------------|------------------8--8-|-8--8--8--8--8--8--8--8-|
A-----------------------|-----------------------|-----------------------|-8--8--8--8--8--8--8--8-|
E-----------------------|-----------------------|-----------------------|------------------------|

the second guitar starts here:
e-----------------------|-----------------------|-----------------------|------------------------|
B------6-8-6------------|-----6--------6--------|--6-------6--------6---|------6--------6--------|
G----7-7-7-7-7--5-------|-8b9----8b9------8b9---|-----8b9-----8b9-------|--8b9----8b9------8b9---|
D-----------------8-5-5-|-----------------------|-----------------------|------------------------|
A-----------------------|-----------------------|-----------------------|------------------------|
E-----------------------|-----------------------|-----------------------|------------------------|


e---------------------6-|--------6---------8-6--|-------------------6---|
B------6-------6------6-|-----------9-8-6-------|--9-8-6----------6---9-|
G---------8b9----8b9----|-8b9-------------------|--------8--6-7-7-------|
D-----------------------|-----------------------|-----------------------|
A-----------------------|-----------------------|-----------------------|
E-----------------------|-----------------------|-----------------------|

e---6-----6-----6----------|
B-8-6-----6-----6----------|
G-----8b9---8b9---8-6-7----|
D------------------------8-|
A--------------------------|
E--------------------------|



Verseriff:
(this is the second guitar)

Bb Eb F
e--------------------------|------------------------|-------------------------|
B--------------------------|------------------------|-------------------------|
G--------------------------|------------------------|-------------------------|
D--------------------------|-8--8-10-10--8--8-10-10-|-10-10-12-12-10-10-12-12-|
A--8--8-10-10--8--8-10-10--|-6--6--6--6--6--6--6--6-|--8--8--8--8--8--8--8--8-|
E--6--6--6--6--6--6--6--6--|------------------------|-------------------------|


Chorusriff:
The bend's here is not all the way up one tone... about half a tone up is more the thing.

1. time last riff on 1. refrain second time last riff on 2 refrain
e--4--4--4--4--6s0-|--4--4--4--4--6--2s0----|-6-------------|-6------------------------------------------------|
B--6--6--6--6--6s0-|--6--6--6--6--6--4s0----|-6---6---6-----|-6-----6-----6-----6-----6-----6------------------|
G------------------|------------------------|---8---8---8b9-|---8b9---8b9---8b9---8b9---8b9---8b9--------------|
D------------------|------------------------|---------------|--------------------------------------------------|
A------------------|------------------------|---------------|--------------------------------------------------|
E------------------|------------------------|---------------|--------------------------------------------------|




Verse:

Bb
Deep down in Louisana close to New Orleans

Way back up in the woods among the evergreens
Eb
There stood a log cabin made of earth and wood
Bb
Where lived a country boy named Johnny B. Goode
F
Who never ever learned to read or write so well
Bb
But he could play the guitar just a like ringin' a bell.


Chorus:

Go! Go! go, Johnny, go, go!
Go! Johnny, go, go!
Go! Johnny, go, go!
Go! Johnny, go, go!
Johnny B. Goode

Verse:

Bb
He used to carry his guitar in a gunny sack

Go sit beneath the tree by the railroad track
Eb
Old engineers would see him sittin' in the shade
Bb
Strummin' with the rythm that the drivers made
F
The people passin' by they would stop and say:
Bb
"Oh my, but that little country boy could play."



Solo:

e-6--6--6--6--6-------|--6--6--6--6--6-------|--6---------6-------|--6---6---6---6-----6----8-6-------|
B-6--6--6--6--6-------|--6--6--6--6--6-------|--6---------6-------|--6---6---6---6--------9-----9-8-6-|
G---------------8-7---|-----------------8-7--|-----8-7-------8-7--|------------------8----------------|
D-------------------8-|--------------------8-|--------8---------8-|-----------------------------------|
A---------------------|--------------------8-|--------------------|-----------------------------------|
E---------------------|----------------------|--------------------|-----------------------------------|

Guns And Roses

Money For Nothing (DIRE STRAITS)


Video:








link: http://www.youtube.com/watch?v=G1rlNLMxY

Tablaturas:

+----------------------------------------------------------------------------+
|-----------6----------------------------------------------------------------|
|--7-7-5--7-5-7-5-3-3-0----7-7--3>s>5---0--3>s>5 5 5>s>3 0-------------------|
|--5-5-5--5---5-5-5-5-5----5-5--3>s>5---0--3>s>5 5 5>s>3 0-------------------|
|----------------------------------------------------------------------------|
+----------------------------------------------------------------------------+

+----------------------------------------------------------------------------+
|-------------8--------------------------------------------------------------|
|--7-7-5--5-7-7-7-5----0--7-7-3>s>5-0----------------------------------------|
|--5-5-5-8---------8-5-0--5-5-3>s>5-0--3>s>5-5-------------------------------|
|----------------------------------------------------------------------------|
+----------------------------------------------------------------------------+


+----------------------------------------------------------------------------+
|----------------------------------------------------------------------------|
|-------------------------3-2------------------------------------------------|
|-----------------------------3>s>5-5-5>p>3----------------------------------|
|-------------------------------------------3>h>5-3>h>5----------------------|
+-------------------------------------------------------6-5-3----------------+

electrica


Layla (ERIC CLAPTON)


VIdeo:








link: http://www.youtube.com/watch?v=BhU54IwMRow

Tablatura:

D#m C# H Bb Ab C# Bb C# D#m
/ | | | | | | |
e||------------------------------------------------------------------||
B||o--------------H--P--------S-------------------------------------o||
G||--------------8-11-8------8-6---------------6---------6--8--------||
D||-------8--11----------11--8-6--9------8--6--6------8--6--8--------||
A||o------------------------------9------8--6---------8-------------o||
E||------------------------------------------------------------------||



Lick 2:
H P B
e|---------------11-14-11-----14-16------14----13-----------11--------|
B|--------11--14---------14---------------------------14--------------|
G|--------------------------------------------------------------------|
D|--------------------------------------------------------------------|
A|--------------------------------------------------------------------|
E|--------------------------------------------------------------------|

H P B
e|---------------11-14-11-----16-18------16----13---------------------|
B|--------11--14---------14---------------------------14----16--------|
G|--------------------------------------------------------------------|
D|--------------------------------------------------------------------|
A|--------------------------------------------------------------------|
E|--------------------------------------------------------------------|

punk

Every Breath You Take (THE POLICE)


Video:








link: http://www.youtube.com/watch?v=FEBySdAw3mg

Tablatura:

e|--------------------------------------------------------------
B|--------------------------------------------------------------
G|---------6------------------6------------------2--------------
D|-----9-----9---9--------9-----9---9--------6-----6---6--------
A|---7---7-----7--------7---7-----7--------4---4-----4----------
E|-5------------------5------------------2----------------------

e|--------------------------------------------------------------
B|--------------------------------------------------------------
G|---------2----------------9---7----------------11----9------9-
D|-----6-----6---6--------7-------7---7--------9---------9------
A|---4---4-----4--------5-----5-----5--------7-------7-----7----
E|-2------------------------------------------------------------

e|-----------------------------------------------------------
B|-----------------------------------------------------------
G|---------6----------------------6------------------------
D|-----9-----9---9------------9-----9---9-----------------
A|---7---7-----7------------7---7-----7----------------------
E|-5---------------------5----------------------------------

=========================================================================================
Black Dog (LED ZEPPELIN)


Video:








link: http://www.youtube.com/watch?v=QBci2tXnDBI

Tablatura:

Intro:
Guitars 1 and 2
8va__________________________________________________________________________
|--------------------------------------------------------------------------------------------|
|----------------------2--2------------------------------------------------------------------|
|--------------------------------------------------------------------------------------------|
|--------------------------------------------------------------------------------------------|
|--------------------------------------------------------------------------------------------|
|----------------0--0--0--0--0--0--0--0--0-0-0-0-0-0-0-0-0-0-0-0-0-0-0-0-0-0-0--0-0-0-0-0-0--|
This pitch is a tape effect.


Verse 1:
Hey, hey mama,said the way you move, gon-na make you sweat, gon-na make you groove,
Guitars 1 and 2* A5
|-----------------------------------------------------------------------------------|
|-------------------------------5---------------------------------------------------|
|-----------------5^~--------7-----5--7hp5--------5^~-------------------------------|
|-----5--6--7-----------7-------------------7--7--------7----5--7--7-------------2--|
|--7-----------7------------------------------------------------------5--73--5--0--|
|-----------------------------------------------------------------------------------|
*Guitar 2 enters and sustains its A5 chord into Verse 2.


Verse 2 and 3:
Unh, nh child, way you shake that thing, gon-na make you burn, gon-na make you sting.
Heh, hey baby when you walk that way, watch heartache drip, can't keep away.
|-------------------------------------------------------------------------------------|
|o-------------------------------5---------------------------------------------------o|
|-------------------5~--------7-----5--7hp5--------5^~--------------------------------|
|------5--6--7-----------7-------------------7--7--------7----5--7--7-------------2---|
|o--7-----------7------------------------------------------------------5--73--5--0--o|
|-------------------------------------------------------------------------------------|


|---------------------------------------------------|
|---------------------------------------------------|
|---------------------------------------------------|
|---------------5^~---------------------5^~---------|
|---5--6--7-----------7-----5--6--7-----------7-----|
|7-----------7-----------7-----------7-----------7--|


|-------------------------------------------------------------------|
|----------------------------------------------------------------5--|
|---------------------------------------------------5^~-------7-----|
|------------5^~------------------------5--6--7------------7--------|
|5--6--7-----------7-----5--6--7--5--7-----------7------------------|
|---------7-----------7---------------------------------------------|


|--------------------------------------------------------------------|
|--------------------------------------------------------------------|
|5--7hp5--------5^~~~~-------------------------------------2------2--|
|---------7--7--------7--5--7--7-------------2------2------2------2--|
|---------------------------------5--73--5--0------0---------3^~-0--|
|--------------------------------------------------------------------|
Ah_


Chorus 1:
Guitars 3*
|--------------------------------------------------------------------------------|
|--------------------------------------------------------------------------------|
|4B--rp2-4--2~-------4B--rp2-4--2~~~~~~~~~~5^~--------2------4B--rp2-------------|
|--------------------------------------------------------------------4--2--------|
|--------------------------------------------------------------------------3^~---|
|--------------------------------------------------------------------------------|
|__ yeah, ah,____ yeah, ah,__ ah,__ ah,____ ah,___
|Guitar 1 and 2*
|---------------------------------------------------------------------|
|---------------------------------------------------------------------|
|2----------2------2----------2----2--2--5-------2------2----------2--|
|2----------2------2----------2----2--2--5-------2------2----------2--|
|0--------3�------0--------3�----0--0--3-------0------0--------3�--|
|---------------------------------------------------------------------|
*Guitars 1, 2, and 3 are too be played evenly but it isn't shown like that.


|------------------------------------------------------------------------|
|------------------------------------------------------------------------|
|----4B--rp2-4--2----2----2-4B--rp2-4--2----2------5^~-------2------2----|
|------------------------------------------------------------------------|
|------------------------------------------------------------------------|
|------------------------------------------------------------------------|
|____ yeah,__ ah____ yeah,__ ah_____ ah,___ ah,___
| A5
|---------------------------------------------------------------|
|---------------------------------------------------------------|
|----2----------2------2----------2--------5-------2------------|
|----2----------2------2----------2--------5-------2------2/2/--|
|----0--------3�------0--------3�--------3-------0-------0----|
|----------------------------------------------------------*----|
Guitar 1 begins a slide up to A, while Guitar 2 repeats A5

Verse 4:
I got-ta roll, can't stand still, got-ta flamein' heart, can't get my_ fill.
Guitar 3 out
Guitar 1 and 2*
|-------------------------------------------------------------------------------|
|-------------------------------------------------------------------------------|
|-------------------------------------------------------------------------------|
|/7/2---------------------------------------------------------------------------|
|--0----------------------------------------------------------------------------|
|-------------------------------------------------------------------------------|
*Guitar 1 fades out and Guitar 2 sustains.


Guitar 1 and 2
|-------------------------------------------------------------------------------------------|
|-----------------------------5-------------------------------------------------------------|
|---------------5^~--------7-----5--7hp5--------5^~-----------------------------------------|
|---5--6--7-----------7-------------------7--7--------7----5--7--7--------------2------2----|
|7-----------7------------------------------------------------------5--7--3--5--0------0----|
|-------------------------------------------------------------------------------------------|


Verse 5:
Eyes that shine,__ burn-in' red,__ dreams of you__ all through my head.__
|------------------------------------------------------------------------|
|------------------------------------------------------------------------|
|------------------------------------------------------------------------|
|2-----------------2--------------------------------------2-------------|
|0-----------------0-----------------------------------------------------|
|------------------------------------------------------------------------|

rock

Bomtrack (RATM)


Video:








link: http://www.youtube.com/watch?v=2hW19bYEexI

Tablatura:

intro: all palm muted
e|--------------------------------|
B|--------------------------------|
G|--------------------------------|
D|-----------------------------5--|
A|---7-5---5---------7-5---5-7----|
E|-0-----7---7-5-3-0-----7--------|

e|---------------------------------|
B|---------------------------------|
G|---------------------------------|
D|---------------------------------|
A|---7-5---5---------7-5---5-------|
E|-0-----7---7-5-3-0-----7---7-5-3-|

e|----------------------------------------|
B|----------------------------------------|
G|----------------------------------------|
D|------------------------------5h7p5h7p5-|
A|---7-5---5----------7-5---5-7-----------|
E|-0-----7---7-5-3-0------7---------------|

e|---------------------------------|
B|---------------------------------|
G|---------------------------------| x2
D|---------------------------------|
A|---7-5---5---------7-5---5-------|
E|-0-----7---7-5-3-0-----7---7-5-3-|

e|----------------------------------|
B|----------------------------------|
G|----------------------------------|
D|----------------------------------|
A|---7-5---5---------------2-2-2-2--|
E|-0-----7---7-5-3-0-0-0-0-0-0-0-0--|
gradually release palm mute

Chorus:
e|-------------------------------|
B|-------------------------------|
G|-------------------------------|
D|---------4---------------4--2--|
A|-2---4-------2-4---2-4---------|
E|-0---2-------0-2---0-2---------|

e|-------------------------------|
B|-------------------------------|
G|-------------------------------|
D|---------4-----------6--5--4---| x?
A|-2---4-------2-4-----4--3--2---|
E|-0---2-------0-2---0-----------|

then after a while
e|--------------------------------------|
B|--------------------------------------|
G|--------------------------------------|
D|---------4-----------6--hold----------|
A|-2---4-------2-4-----4--hold----------|
E|-0---2-------0-2---0------------14---|

verse:
e|------------------------------|
B|------------------------------|
G|------------------------------|
D|------------------------------|
A|------------------------------|
E|-2--2---0---2-2---2----0---5--|

e|------------------------------|
B|------------------------------|
G|------------------------------|
D|-----------------4-2----------|
A|---------------------4-3-2-0--|
E|-2--2---0---2p0---------------|

e|------------------------------|
B|------------------------------|
G|------------------------------|
D|------------------------------|
A|------------------------------|
E|-2--2---0---2-2---2----0---5--|

e|-------------------------------------|
B|-------------------------------------|
G|-------------------------------------|
D|-----------------x-x-x-x-x-x-x-x-----| x?
A|-----------------x-x-x-x-x-x-x-x-----|
E|-2--2---0---2p0--x-x-x-x-x-x-x-x-----|


bridge"
e|----------------------------------|
B|----------------------------------|
G|----------------------------------|
D|-----------------------x-x-x-x----|
A|-----------------------x-x-x-x----|
E|-2p0-2p0-5--2p0-2p0-2--x-x-x-x----|

e|----------------------------------|
B|----------------------------------|
G|----------------------------------|
D|----------------------------------|
A|--------------------4p0-3p0-2p0---|
E|-2p0-2p0-5--2p0-2p0---------------|

solo:
e|------------------------------|
B|------------------------------|
G|----14----16----14----16-----|
D|--x-14--x-16--x-14--x-16-----|
A|------------------------------|
E|------------------------------|

e|----------------------------------------|
B|--------------14-17b19-19-19-19-19r17---|
G|----14----16----------------------------|
D|--x-14--x-16----------------------------|
A|----------------------------------------|
E|----------------------------------------|

e|------------------------------|
B|------------------------------|
G|----14----16----14----16-----|
D|--x-14--x-16--x-14--x-16-----|
A|------------------------------|
E|------------------------------|

e|--------------/14--16-17-16-17-16b17r16v-|
B|-----------------------------------------|
G|----14----16-----------------------------|
D|--x-14--x-16-----------------------------|
A|-----------------------------------------|
E|-----------------------------------------|

e|------------------------------|
B|------------------------------|
G|------------------------------|
D|------------------------------|
A|------------------------------|
E|-2--2---0---2-2---2----0---5--|

No sabes leer tablaturas ?

TRASTES: En el mástil se encuentran los trastes, que son las divisiones en que se divide.

CUERDAS: La guitarra tiene 6 cuerdas de distinto grosor, la más fina que esta abajo, es la denominada 1ª cuerda, la siguiente es la 2ª, y así hasta la 6ª que es la más gruesa.


Mastil de la guitarra

......---
Mi 1ra. ||---------|----------|----------|----------|---------|-
Si 2da. ||---------|----------|----------|----------|---------|-
Sol 3ra.||---------|----------|----------|----------|---------|-
Re 4ta. ||---------|----------|----------|----------|---------|-
La 5ta. ||---------|----------|----------|----------|---------|-
Mi 6ta. ||---------|----------|----------|----------|---------|-
......___/1 Traste . 2 Traste . 3 Traste . 4 Traste . 5 Traste



La tablatura se compone de seis líneas horizontales que representan las seis cuerdas de la guitarra, la línea de arriba es la 1ª cuerda y la última línea es la 6ª:

e--------------------------primera cuerda
B-------------------------segunda cuerda
G-------------------------tercera cuerda
D------------------------cuarta cuerda
A------------------------quinta cuerda
E------------------------sexta cuerda


En estas líneas estaran unos números que muestran el traste que se tiene que pulsar:

e----1--------------------
B-------------------------
G-------3-----------------
D----------5--------------
A-------------------------
E-------------------------

Esto quiere decir que debes comenzar el punteo de guitarra pulsando la cuerda primera(e) en el traste 1, después sigue la cuerda tercera(G) en el traste 3, después sigues la cuerda cuarta(D) en el traste 5.
Si encuentras un 0 en la tablatura te esta indicando que la cuerda hay que tocarla sin pulsarla.



Cuando en la tablatura hay unos números sobre otros, los tienes que tocar al mismo tiempo y cada uno en su traste. Esto se llamaria acorde y se define como: dos o más notas sonando al mismo tiempo.

e--2-----------------------primera cuerda
B--3-----------------------segunda cuerda
G--------------------------tercera cuerda
D--------------------------cuarta cuerda
A--------------------------quinta cuerda
E--------------------------sexta cuerda

En la tablatura de arriba hay dos notas una encima de otra, sin dejar espacio. Esto indica que hay que tocarlas a la vez. La primera cuerda de la guitarra pisada en el traste 2 y la segunda cuerda pisada en el traste 3, presionas las dos cuerdas a la vez en sus trastes correspondientes y las tocas al mismo tiempo.


Acordes para guitarra puestos en tablatura

Ahora os mostramos algunos acordes basicos de guitarra puestos en tablatura:

Visita tambien: Acordes de guitarra
|--------------------------------------------------------------------|
|--------------------------------------------------------------3-----|
|------9--------10--------------------2---3---4---5---6---7----2---8-|
|-2----9---3----10---4---5---6---7----2---3---4---5---6---7----0---8-|
|-2----7---3-----8---4---5---6---7-ó--0---1---2---3---4---5--------6-|
|-0--------1---------2---3---4---5-----------------------------------|


|-0---1---3---0---2---3---1-|
|-0---1---3---1---3---4---3-|
|-0---1---3---2---4---5---2-|
|-2---3---0---2---4---5---0-|
|-2---3-------0-------------|
|-0---1---------------------|

No conoces todos los acordes ?

and

Estos acordes y la mayoría de los que encuentres en Internet están escritos en el cifrado americano, este cifrado se usa en todo el mundo:
A----------B----------C----------D----------E----------F----------G

LA---------SI---------DO-------RE--------MI----------FA------- SOL


Lam = La Menor

La # = La Sostenido

La = La Mayor

La b = La Bemol

ESTO ES CON TODAS LAS NOTAS IGUAL

La 7 = La Septima

La 9 = La novena



Bueno Gente, esto es todo por ahora. Recuerden, COMENTAR ES AGRADECER

1 comentario - Megapost Guitarra (Canciones, Teoria, Acordes, Tabs)

@ManuelF24 +1
Buen aporte loco!!! seguí así...