El post que buscas se encuentra eliminado, pero este también te puede interesar

5 canciones para que toques con la guitarra

Hola, les dejo un par de intros de temas para que practiquen con la guitarra!

son pocos pero si les gusta voy a hacer mas post como este ..

Al final de cada video esta el link de la tablatura para que la puedan bajar.. se las subi a mediafire para que les sea mas facil y rapido bajarlas..

Para ver las tablaturas necesitan el guitar pro..DESCARGA EN COMENTARIOS



dijo:Nota: Las tablaturas que se ven a simple vistas las hice como pude, es obvio que el tiempo no es correcto y no tiene las tecnicas usadas por los guitarristas (slide, vibratos, ligados, etc), por eso les dejo covers de usuarios de youtube y su respectiva tablatura.
[/quote]

5 canciones para que toques con la guitarra

Enanitos Verdes - Tu Carcel



1|
2| 7---7-5-3---------3-3-5-7--7--7---5---5-3-2----------2-2-3-5--5--5--3---3-2-0----------0-0-0-0--2--3--3--2--3--5
3|
4|
5|
6|



link: http://www.youtube.com/watch?v=YDp9FlnaerQ&feature=related



lecciones

Iron Maiden - Wasting Love



1| --------------------------8---------10-8-7----7
2| 8----------10-12--------10---------------10---10-8-7
3|----------------------9
4|
5|
6|

dijo:Nota: Usa ligados y estirados, se daran cuenta si miran el video y/o bajan la tablatura
[/quote]


link: http://www.youtube.com/watch?v=jlVEGdfruGs


canciones

Metallica - Enter Sandman



1|
2|
3|
4| ---------5------------------------5
5| ------7------------7---------7-------------7
6| 0---------6--5------0-------------6--5-----0

dijo:NOTA: Repite lo mismo
[/quote]

link: http://www.youtube.com/watch?v=jmCQPkm96po

guitar pro

Metallica - The Unforgiven



James Hetfield

1|
2| 0--------0--------0--------0--------1---------0--------0--------0--------0--------1--------
3| --2--------2--------2--------2--------2---------2--------2--------2--------2--------2------
4| ----2---------2-------2--------2--------2-----------2--------2-------2--------2--------2---
5| 0------------------------------------------------0-----------------------------------------------
6|

Kirk Hammett

1|
2|
3| 2---4---4^5------5---4---2---------2---4--4^5------5---2 |x2|-----2---4---4^5-----4^5----5----5----4
4|----------------------------------------------------------------------------------------------------------------------------------------------------5
5|
6|

1|
2| ------------------------------------------------------3^5----5---5---3
3| 4-------------2------2^4---2------2---4---4^5-----------------------4-----4^1---1---2---4---2
4| ---2---2--2-
5|
6|

dijo:Nota: |x2| significa que se debe repetir lo mismo dos veces; y 2^4 significa que hace un slide del traste 2 al 4 y asi lo mismo con los otros
[/quote]


link: http://www.youtube.com/watch?v=34mm7DHtUNQ

faciles

Metallica - Fade to Black



James Hetfield

1|
2|
3|
4|------0--------------------0------------------0---------------------2
5| --4---4---4---4------4---4--4---4-----4---4---4---4------2---2---2---2
6| 2-------2----5------0-------0---5-----2-------2---5------4--------4---0

Kirk Hammett

1|
2|-------7-------7--8^10-----8--10--12--10--8--8^10------12--10--8^7^8^7---7--7^8--7--------7
3|----7------------------------------------------------------------------------------------9------------------9----9---7
4| 9-------9----------------------------------------------------------------------------------------------------------------
5|
6|

1| ------------------------------------------------------------------14-19-14----15^14
2| ---------------------------------8---7----------8^10-------15-----------15---------15---17-15-14
3| -----------------7^6------7^6-----------------------------------------------16----------14------------16-14-----14-16
4| 7--7^9----9--------------------------------------------------
5|
6|

1|----------------------------------------------------------------------------19--17--15----15--17--14------14--15----14-------14--15--14---17-15-14
2|-----------------------------14--15--14-15-14-----14--15-----14----------------------------------15--------------------15----------------------15
3|-------------------14--16-------------------------16--------------------------------------------------------16--------------------14
4| 14----14--16
5|
6|

dijo:Nota: Usa ligados y estirados, se daran cuenta si miran el video y/o bajan la tablatura
[/quote]


link: http://www.youtube.com/watch?v=f8u0kVoVE-0

Espero que les haya gustado

Fuentes de Información - 5 canciones para que toques con la guitarra

El contenido del post es de mi autoría, y/o, es un recopilación de distintas fuentes.

Dar puntos
10 Puntos
Votos: 1 - T!score: 10/10
  • 0 Seguidores
  • 188 Visitas
  • 0 Favoritos

3 comentarios - 5 canciones para que toques con la guitarra

@ZeroC0l Hace más de 2 años +1
Buen post