Como Jugar con una Escala de Blues Pentatónica sobre el Bajo

esta en inglés pero me tome el trabajo de hacer la tablatura,
abajo del video esta la tab.Bajo - Como Jugar con una Escala de Blues Pentatónica


link: http://www.videos-star.com/watch.php?video=L1jsydccvto

TAB.

|----------------------------------|-----------------------|
|--------5-5--3-3---------------|----5-5--3-3--------|
|---------------------5-5---------|----------------5-5--|
|--3-3---------------------3-3--|-----------------------|


|-------5-5--3-3--------|------------------------|
|-------------------5-5--|--------5-5--3-3---------|
|--3-3-------------------|---------------------5------|
|--------------------------|--3-3-------------------|


|-------7-7--5-5--------|
|-------------------7-7----|
|--5-5---------------------|
|---------------------------|


|-------5-5--3-3---------|--------------------------------|
|-------------------5-5--|-------5-5--3-3----------------|
|--3-3-------------------|-------------------5---3-4-5---|
|--------------------------|--3-3---------------------------|



Saludos

tablatura