Tutorial-Canciones Fáciles para Guitarra

En el Muelle de San Blas-Mana

link: http://www.youtube.com/watch?v=fE5lnras-zI

Tablatura:
intro & versos
e-----------------7-------------------------5-------------------------5--------
B------------8----------8-------------5---------5---------------5----------5---
G---------9-----9----9----9--------7-----7----7----7---------6-----6-----6----6
D--------------------------------------------------------0---------------------
A------------------------------0-----------------------------------------------
E------0-----------------------------------------------------------------------

e------------------3-----2-----0----
B-------------3---------------------
G-----------4---4-----4-------------
D-----------------------------------
A-----------------------------------
E-------3---------------------------

Come as you are-Nirvana

link: http://www.youtube.com/watch?v=73TsTta2mhM
Tablatura
|-------------------------------
|-------------------------------
|-------------------------------
|-------------------------------
|---------0---0---------2-----2-
|-0-0-1-2---2---2-2-1-0---0-0---

Smoke on the water-Deer Puple

link: http://www.youtube.com/watch?v=EorPLmKS-Y0
Tablatura
E----------------------------------------------------------
B----------------------------------------------------------
G------3------5-------------3-----6-----5-----------3----5-
D--5---3------5--------5----3-----6-----5------5----3----5-
A--5-------------------5-----------------------5-----------
E----------------------------------------------------------

E---------------
B---------------
G--3------------
D--3------5-----
A---------5-----
E---------------

Sunshine of your love-Cream

link: http://www.youtube.com/watch?v=sijURRKRy3E
Tablatura
------------------------------------------------------------------------------
------------------------------------------------------------------------------
------------------------------------------------------------------------------
------12--12---10---12--------------------------------------------------------
------------------------12--11--10------b8------------------------------------
------------------------------------10------10--------------------------------


Riff 2
------------------------------------------------------------------------------
------------------------------------------------------------------------------
------12--12---10---12--------------------------------------------------------
------------------------12--11--10------b8------------------------------------
------------------------------------10------10--------------------------------
------------------------------------------------------------------------------

Seven nation army-wHITE sTRIpes

link: http://www.youtube.com/watch?v=hTjvsKUFb-4
Tablatura
e-------------------------------=-----------|
C#------------------------------------------|
A-------------------------------------------|
E-------------------------------------------|
A---7----7----10----7----5----3----2--------|
E-------------------------------------------|
8x

Sweet Child o Mine

link: http://www.youtube.com/watch?v=kGJUc9SIgPE
Tablatura
Part 1- play this through twice

----------------14----13---------------------14-----14---------
-------14---------------------------14-------------------------
----------13-------13----13------------13--------13----13------
---11--------11-----------------11--------11-------------------
---------------------------------------------------------------
---------------------------------------------------------------

----------------14----13---------------------14-----14---------
-------14---------------------------14-------------------------
----------13-------13----13------------13--------13----13------
---13--------11-----------------13--------11-------------------
---------------------------------------------------------------
---------------------------------------------------------------

------------------14----13---------------------14-----14-------
-------14---------------------------14-------------------------
----11------13-11----13----13----11----13-11-------13----13----
---------------------------------------------------------------
---------------------------------------------------------------
---------------------------------------------------------------

----------------14----13---------------------14-----14---------
-------14---------------------------14-------------------------
----------13-------13----13------------13--------13----13------
---11--------11-----------------11--------11-------------------
---------------------------------------------------------------
---------------------------------------------------------------

Fade to Black-Metallica

link: http://www.youtube.com/watch?v=TbKh2_eXT2E
Tablatura
e)-----------------|----------------|----------------|
B)-----------------|----------------|----------------|
G)------0----------|------0---------|------0---------|
D)----4---4---4--4-|----4---4---4--4|----4---4---4--4|
A)--2-------2---5--|--0-------0---5-|--2-------2---5-|
E)-----------------|----------------|----------------|

e)----------------| He plays this once before kirk plays
B)----------------| the solo
G)------2---------|
D)----2---2---2--2|
A)--4-------4---0-|
E)----------------|

Californication-Red Hot Chili Peppers

link: http://www.youtube.com/watch?v=Z-FPl5kHhNQ
Tablatura
Intro:

E---------------------------------------------
B-----0-1-------------------------------------
G-------------------------------0-2-----------
D---2-------(2)-(0h2p0)---------------(0)-----
A-0---------------------(3)---3-----------(3)-
E---------------------------1-----------------

E---------------------------------------------
B-----0-1-------------------------------------
G-------------------------------0-2-----------
D---2-------(2)-(0h2p0)---------------(3)-(0)-
A-0---------------------(3)---3---------------
E---------------------------1-----------------

Iron Man-Black Sabbath

link: http://www.youtube.com/watch?v=40yJN8dQrtk
Tablatura
|------------------------------------------
|------------------------------------------ *this is
|------------------------------------------ the rhythm
|----7--7/9-9--1211-1211-1211--7-7/9-9--
|-9--5--5/7-7--109--109--109---5-5/7-7--
|-7----------------------------------------
repeat once

|------------------------------------------
|------------------------------------------
|------------------------------------------
|------------------------------------------
|----5--5h7--7--109-109-109--5--5h7--7--
|-7----------------------------------------

Flaca-Andres Calamaro

link: http://www.youtube.com/watch?v=Z3jqHpUj0Mc

Tutorial
Intro:

G B7 Em C
e¨U--------------------------------------------------------------------------|
B¨U--3----0-------0--3--4------0-------0--4--5------0----------0--3--1-1-----|
G¨U----------2--0-----------------2--0-----------------2--0--2---------------|
D¨U--------------------------------------------------------------------------|
A¨U--------------------------------------------------------------------------|
E¨U--------------------------------------------------------------------------|

G D G D
e¨U--------------------------------------------------------------------------|
B¨U--0---3----0-----------0--3----0------------------------------------------|
G¨U--------------2--0--2-------------2--0------------------------------------|
D¨U--------------------------------------------------------------------------|
A¨U--------------------------------------------------------------------------|
E¨U--------------------------------------------------------------------------|

Ayuden con puntos

Fuentes de Información - Tutorial-Canciones Fáciles para Guitarra

¿Te gustó lo que viste?

Inscríbete en el newsletter de Taringa! para recibir más artículos como este.

¡Gracias por suscribirte al newsletter!

Periódicamente recibirás en tu correo más artículos de Taringa!

10 comentarios - Tutorial-Canciones Fáciles para Guitarra

@kyky_ramone +2
Que buen post chabon!!! lastima que soy novato, si no te daria puntos!!
@Leoo1545 +2
muy buen post!!! gracias
@alons0 +2
gran post no te puedo dar puntos,solo las gracias : c
@kavellid +1
muchisimas gracias maestro!!! +10 a favs
@TRR093 +1
BUEN POST, PERO NO TENGO GUITARRA,JEJE
@Hernanelroto +1
+10 capo, me re sirvio q no se nada de guitarra, y esos temas faciles me salieron re bien gracias capo
@frnkco +1
10 por el muelle, por el trabajito y por ser cuervo!!