Check the new version here

Popular channels

escalas para bajo

Hoy les traigo escalas para el bajo, las escalas sirven para que la mano se agiliza mas y tocar mas rápido



Ionian (Major Scale) Dorian
|-----------------2--4--5--|--------------------3--5--|
|--------2--3--5-----------|-----------3--5--7--------|
|--3--5--------------------|--3--5--6-----------------|
|--------------------------|--------------------------|

[img] Lydian
|--------------------3--5--|--------------------4--5--|
|-----------3--5--6--------|-----------4--5--7--------|
|--3--4--6-----------------|--3--5--7-----------------|
|--------------------------|--------------------------|

[img] Aeolian (Minor Scale)
|--------------------3--5--|--------------------3--5--|
|-----------3--5--7--------|-----------3--5--6--------|
|--3--5--7-----------------|--3--5--6-----------------|
|--------------------------|--------------------------|

[img] Melodic Minor
|--------------------3--5--|--------------------4--5--|
|-----------3--4--6--------|-----------3--5--7--------|
|--3--4--6-----------------|--3--5--6-----------------|
|--------------------------|--------------------------|

[img] b2 Lydian Augmented
|--------------------3--5--|--------------------4--5--|
|-----------3--5--7--------|-----------4--6--7--------|
|--3--4--6-----------------|--3--5--7-----------------|
|--------------------------|--------------------------|

[img] Dominant Hindu
|--------------------3--5--|--------------------3--5--|
|-----------4--5--7--------|-----------3--5--6--------|
|--3--5--7-----------------|--3--5--7-----------------|
|--------------------------|--------------------------|


[img] Natural 2 Super Locrian
|--------------------3--5--|--------------------3--5--|
|-----------3--4--6--------|-----------2--4--6--------|
|--3--5--6-----------------|--3--4--6-----------------|
|--------------------------|--------------------------|

[img] Minor Locrian Natural 6
|--------------------4--5--|--------------------3--5--|
|-----------3--5--6--------|-----------3--4--7--------|
|--3--5--6-----------------|--3--4--6-----------------|
|--------------------------|--------------------------|

[img] Augmented Dorian #4
|--------------------4--5--|--------------------3--5--|
|-----------3--6--7--------|-----------4--5--7--------|
|--3--5--7-----------------|--3--5--6-----------------|
|--------------------------|--------------------------|

[img] Major Lydian #2
|--------------------3--5--|--------------------4--5--|
|-----------3--5--6--------|-----------4--5--7--------|
|--3--4--7-----------------|--3--6--7-----------------|
|--------------------------|--------------------------|

[img] Double b7 Harmonic Major
|--------------------2--5--|--------------------4--5--|
|-----------2--4--6--------|--------2--3--5--6--------|
|--3--4--6-----------------|--3--5--------------------|
|--------------------------|--------------------------|

[img] b5 Phrygian b4
|--------------------3--5--|--------------------3--5--|
|-----------3--4--7--------|-----------2--5--6--------|
|--3--5--6-----------------|--3--4--6-----------------|
|--------------------------|--------------------------|

[img] b3 Dominant b2
|--------------------4--5--|--------------------3--5--|
|-----------4--5--7--------|-----------3--5--7--------|
|--3--5--6-----------------|--3--4--7-----------------|
|--------------------------|--------------------------|

[img] Augmented #2 Locrian Double b7
|--------------------4--5--|--------------------2--5--|
|-----------4--6--7--------|-----------3--4--6--------|
|--3--6--7-----------------|--3--4--6-----------------|
|--------------------------|--------------------------|

[img] Minor Oriental
|--------------------4--5--|--------------------3--5--|
|-----------4--5--6--------|-----------3--4--7--------|
|--3--5--6-----------------|--3--4--7-----------------|
|--------------------------|--------------------------|

[img] Augmented #2 Locrian Double b3 Double b7
|--------------------4--5--|--------------------2--5--|
|-----------3--6--7--------|-----------3--4--6--------|
|--3--6--7-----------------|--3--4--5-----------------|
|--------------------------|--------------------------|

[img] Harmonic Lydian #6 #2
|--------------------4--5--|--------------------4--5--|
|-----------3--5--6--------|-----------4--5--8--------|
|--3--4--7-----------------|--3--6--7-----------------|
|--------------------------|--------------------------|

[img] Natural 5 Double b7 Hungarian Major
|--------------------2--5--|--------------------3--5--|
|-----------2--5--6--------|-----------4--5--7--------|
|--3--4--6-----------------|--3--6--7-----------------|
|--------------------------|--------------------------|


[img] Double b6 Double b7 Locrian Natural 2 Natural 7
|--------------------2--5--|--------------------4--5--|
|-----------2--5--6--------|-----------3--4--6--------|
|--3--4--6-----------------|--3--5--6-----------------|
|--------------------------|--------------------------|

[img] Natural 6 Melodic Augmented
|--------------------3--5--|--------------------4--5--|
|-----------2--4--7--------|-----------3--6--7--------|
|--3--4--6-----------------|--3--5--6-----------------|
|--------------------------|--------------------------|

[img] b2 #4 Lydian Augmented #3
|--------------------3--5--|--------------------4--5--|
|-----------4--5--7--------|-----------4--6--7--------|
|--3--4--6-----------------|--3--5--8-----------------|
|--------------------------|--------------------------|

[img] Minor Lydian #6
|--------------------4--5--|--------------------4--5--|
|-----------3--5--6--------|-----------4--5--8--------|
|--3--4--6-----------------|--3--5--7-----------------|
|--------------------------|--------------------------|

[img] Augmented Hungarian Gypsy
|--------------------3--5--|--------------------3--5--|
|-----------3--6--7--------|-----------4--5--6--------|
|--3--5--7-----------------|--3--5--6-----------------|
|--------------------------|--------------------------|

[img] Natural 3 Ionian #2
|--------------------3--5--|--------------------4--5--|
|-----------3--4--6--------|-----------3--5--7--------|
|--3--4--7-----------------|--3--6--7-----------------|
|--------------------------|--------------------------|

[img] Double b3 Double b7 Neapolitan Major
|--------------------4--5--|--------------------3--5--|
|-----------2--4--6--------|-----------3--5--7--------|
|--3--4--5-----------------|--3--4--6-----------------|
|--------------------------|--------------------------|

[img] Augmented #6 Lydian Dominant Augmented
|--------------------4--5--|--------------------3--5--|
|-----------4--6--8--------|-----------4--6--7--------|
|--3--5--7-----------------|--3--5--7-----------------|
|--------------------------|--------------------------|

[img] Minor Major Locrian
|--------------------3--5--|--------------------3--5--|
|-----------4--5--6--------|-----------3--4--6--------|
|--3--5--7-----------------|--3--5--7-----------------|
|--------------------------|--------------------------|


[img] Natural 2 Alt Double b3
|--------------------3--5--|--------------------3--5--|
|-----------2--4--6--------|-----------2--4--6--------|
|--3--5--6-----------------|--3--4--5-----------------|
|--------------------------|--------------------------|


[img] Minor Enigmatic
|-----------------3--4--5--|--------------------4--5--|
|-----------4--5-----------|-----------4--6--8--------|
|--3--4--6-----------------|--3--4--7-----------------|
|--------------------------|--------------------------|

[img] II Ionian b5
|--------------------4--5--|--------------------4--5--|
|-----------4--5--6--------|-----------3--4--7--------|
|--3--4--7-----------------|--3--5--6-----------------|
|--------------------------|--------------------------|

[img] Lydian Augmented Locrian Natural 7
|--------------------4--5--|--------------------4--5--|
|-----------4--6--8--------|-----------3--4--6--------|
|--3--6--8-----------------|--3--4--6-----------------|
|--------------------------|--------------------------|

[img] Augmented Alt Alt
|--------------------3--5--|--------------------2--5--|
|-----------3--6--7--------|-----------2--4--5--------|
|--3--5--6-----------------|--3--4--5-----------------|
|--------------------------|--------------------------|

[img] Algerian
|--------------------4--5--|--------------------4--5--|
|-----------3--4--6--------|-----------4--5--6--------|
|--3--4--7-----------------|--3--5--6-----------------|
|--------------------------|--------------------------|

[img] Bartok
|--------------------3--5--|--------------------3--5--|
|-----------3--4--6--------|-----------4--5--7--------|
|--3--5--7-----------------|--3--5--7-----------------|
|--------------------------|--------------------------|

[img] Byzantine
|--------------------3--5--|--------------------4--5--|
|-----------3--5--6--------|-----------3--5--6--------|
|--3--4--7-----------------|--3--4--7-----------------|
|--------------------------|--------------------------|

[img] Gypsy
|--------------------3--5--|--------------------3--5--|
|-----------3--5--6--------|-----------3--5--7--------|
|--3--5--6-----------------|--3--4--7-----------------|
|--------------------------|--------------------------|


[img] Jewish

|-----------------2--3--5--|--------------------3--5--|
|-----------3--5-----------|-----------3--5--6--------|
|--3--4--6-----------------|--3--4--7-----------------|
|--------------------------|--------------------------|

[img] Leading Whole Tone
|-----------------2--4--5--|--------------------4--5--|
|-----------3--5-----------|-----------4--6--8--------|
|--3--5--6-----------------|--3--5--7-----------------|
|--------------------------|--------------------------|

[img] Overtone
|--------------------4--5--|--------------------3--5--|
|-----------3--5--6--------|-----------4--5--7--------|
|--3--5--6-----------------|--3--5--7-----------------|
|--------------------------|--------------------------|

[img] 5 Tone Scales:
Jazz Minor Minor Pentatonic Major Pentatonic
|--------------------4--5--|--------------3--5--|--------------2--5--|
|-----------3--5--7--------|--------3--5--------|--------3--5--------|
|--3--5--6-----------------|--3--6--------------|--3--5--------------|
|--------------------------|--------------------|--------------------|

[img] Pentatonic Kumoi Hirojoshi
|--------------2--5--|--------------2--5--|--------------1--5--|
|--------2--5--------|--------1--5--------|--------1--5--------|
|--3--4--------------|--3--5--------------|--3--5--------------|
|--------------------|--------------------|--------------------|

[img] Chinese Egyptian
|-----------------5--|--------------2--5--|--------------3--5--|
|-----------5--6-----|--------2--5--------|--------3--5--------|
|--3--4--6-----------|--3--5--------------|--3--5--------------|
|--------------------|--------------------|--------------------|

[img] Japanese Mongolian
|--------------3--5--|-----------------5--|-----------------5--|
|--------3--4--------|--------3--5--6-----|-----------5--7-----|
|--3--4--------------|--3--4--------------|--3--5--7-----------|
|--------------------|--------------------|--------------------|


[img] Tone Scales
Whole Tone Augmented Pelog
|--------------------5--|-----------------4--5--|--------------------5--|
|-----------4--6--8-----|-----------5--6--------|-----------2--5--6-----|
|--3--5--7--------------|--3--6--7--------------|--3--4--6--------------|
|-----------------------|-----------------------|-----------------------|

[img] Suspended Blues Minor Blues Major
|--------------2--3--5--|-----------------3--5--|-----------------2--5--|
|--------3--5-----------|--------3--4--5--------|--------3--4--5--------|
|--3--5-----------------|--3--6-----------------|--3--6-----------------|
|-----------------------|-----------------------|-----------------------|


[img] Tone Scales:
Diminished Whole Half Diminished Half Whole
|--------------------2--4--5--|--------------------2--4--5--|
|-----------3--4--6-----------|-----------2--4--5-----------|
|--3--5--6--------------------|--3--4--6--------------------|
|-----------------------------|-----------------------------|

[img] Tone Spanish Bebop Locrian Natural 2
|--------------------1--3--5--|--------------------3--4--5--|
|-----------2--3--4-----------|-----------3--4--6-----------|
|--3--4--6--------------------|--3--5--6--------------------|
|------------------------------|-----------------------------|

[img] Dominant Bebop Minor
|--------------------3--4--5--|--------------------2--3--5--|
|-----------3--5--7-----------|-----------3--5--6-----------|
|--3--5--7--------------------|--3--5--6--------------------|
|------------------------------|-----------------------------|

[img] Locrian Add 5 Bebop Dorian
|--------------------2--4--5--|--------------------3--4--5--|
|-----------3--4--5-----------|-----------3--5--7-----------|
|--3--4--6--------------------|--3--5--6--------------------|
|------------------------------|-----------------------------|

[img] Bebop Major (Augmented 5)
|--------------------3--4--5--|--------------------2--4--5--|
|-----------3--5--7-----------|-----------3--5--6-----------|
|--3--5--7--------------------|--3--5--7--------------------|
|------------------------------|-----------------------------|



Estas son todas

Gracias Y

QUE VIVA EL METAL!!!!!!
0
5
0
1
5Comments
garyguana

nunguna de tus escaalas toca la 4 cuerda partner, no usas Mi (E) en ninguna escala, q onda'?

0
MetalFan145

es para gente con algo de experiencia

0
mauritonob74
0
NiColitoo

de onda. algunas no son escalas, son modos.

0
Blackmore1945

De que sirven si no podés explicarle -a los que se interesen- donde se aplican, cuando se aplican, sobre que familia armónica se aplican, como se pasa de una escala a otra, como se altera. etc etc? ... Con las escalas solas no hacemos nada

0