Check the new version here

Popular channels

(Parte 1) Como tocar canciones de: Nirvana



¿Querés aprender a tocar las canciones de Nirvana?
Acá las tenés.


About a girl

e------------------
b------------------
g------------------
d------5--7-9-12---
a--5-7-------------
e------------------
X4


Aero Zeppelin

e|-----------0--0--0--------------0----|
B|----------------------3------3-------|
G|--------------------------3----------|
D|---2-2-------------------------------|
A|---2-2-------------------------------|
E|---0-0-------------------------------|

e|-----------0--0--0-------------------|
B|----------------------3------3-------|
G|--------------------------3------3---|
D|---2-2-------------------------------|
A|---2-2-------------------------------|
E|---0-0-------------------------------|



D|--2-2-------------|-2-2-------------|
A|--2-2--1-1-2-5-5--|-2-2--2-2-1---1--|
E|--0-0-------------|-0-0--------3--3-|

All Apologies

Eb ----------------------|-----------------------|----------------------|-
Bb ----------------------|-----------------------|----------------------|-
Gb ----------------------|-----------------------|----------------------|-
Db ----------------------|---------912-12-9-10--|----------------------|-
Ab ---9-10-912-12-9-10--|--9-10-9---------------|---9-10-912-12-9-10--|-
Db -0--------------------|0----------------------|-0--------------------|-


Eb ---------------------|-
Bb ---------------------|-
Gb ----------11-11-9----|-
Db ------------------12-|-
Ab ---9-10-9------------|-
Db -0-------------------|-

Aneurysm

e----------------------------------------------------------------------------
b----------------------------------------------------------------------------
g-----------------5--------4--------2-----0----------------------------------
d-----4--------5--------4--4-----2--2--2--0----------------------------------
a--4--4--0--3--------0--2-----0--0-----0-------------------------------------
e--2-------------------------------------------------------------------------

e----------------------------------------------------------------------------
b----------------------------------------------------------------------------
g--------------5-----------4-----------2-----0-------------------------------
d-----4-----5--5--5-----4--4--4-----2--2--2--0-------------------------------
a--4--4--0--3-----3--0--2-----2--0--0-----0----------------------------------
e--2-------------------------------------------------------------------------


Blew

1|----------------------------------|
2|----------------------------------|
3|----------------------------------|
4|----------------------------------|
5|-0--3--5--6--6--5--3--0--5--------|
6|-0--3--5--6--6--5--3--0--5--------|

Breed

e|---------------------------------|---------------------------------|
B|---------------------------------|---------------------------------|
G|-------------------------------|--------------------------------|
D|---4--4--4--4--7-----------2---|---4--4--4--4--7----------------|
A|----4--4--4--4--7-------2----|----4--4--4--4--7------------|
E|----2--2--0--2--5-----------0----|----2--2--0--2--5-----------0----|


Come As You Are

-------------------------------
-------------------------------
-------------------------------
-------------------------------
---------0---0---------2-----2-
-0-0-1-2---2---2-2-1-0---0-0---

Drain You

|-----------------------------------------------------|
|-----------------------------------------------------|
|-5-5-5/9-9-9-------7-7-7--5-5-5/9-9-9-------7-7-7----|
|-5-5-5/9-9-9-7-7-0-7-7-7--5-5-5/9-9-9-7-7-0-7-7-7----|
|-3-3-3/7-7-7-7-7-0-5-5-5--3-3-3/7-7-7-7-7-0-5-5-5----|
|-------------5-5-0--------------------5-5-0----------|

Dumb

Eb -------------------|--
Bb -------------------|--
GB -------------------|--
PP ----- 2 -------- 5 ----|--
Ab ----- 2 -------- 5 ----|--
Eb -0 ----- 0 - 3-3 --- 0 --|--

Floyd the barber

e|-------------------------|
B|-------------------------|
G|-------------------------|
D|--3--3----2--2--2--------|
A|--3--3----2--2--2--------|
E|--1--1----0--0--0--------|

Heart Shaped Box

3:-----2-------------------------------2----------
4:---2---2------3---------0----0---2-2---2-----3--
5:-0----------3---3-----0----0---0-0---------3---3
6:----------3--------0---------------------3------

In Bloom

E -----------------------------------------------------------
B -----------------------------------------------------------
G -3--3-3-----------------------------3--3-3-----------------
D -3--3-3--5----3--3-3--6-------------3--3-3--5----3--3-3--6-
A -1--1-1--5----3--3-3--6-------------1--1-1--5----3--3-3--6-
E ---------3----1--1-1--4----4-1-4-5----------3----1--1-1--4-

Jesus Don't Want Me For a Sunbeam

Intro: x2
D C G G* G
e|-------2--0----|----------------|----------|----------|
B|-3--3--------3-|-1--1---3--1--0-|-------1--|----------|
G|---------------|----------------|-0--0-----|-0--0--0--|
D|---------------|----------------|----------|----------|
A|---------------|----------------|----------|----------|
E|---------------|----------------|----------|----------|

Lake of Fire

|-------------------------------------------------------
|-------------------------------------------------------
|-3--3------------3-----3--3--------5---5---5-3---------
|-5--5----5-3--3--3-----5--5--x-x-x-5---5---5-3---------
|-5--5----5-3--3--1-----5--5--x-x-x-3---3---3-1---------
|-3--3----31--1--------3--3----------------------------
|
|-------------------------------------------------------
|-----------------------------------5b6r5b6r5-3---------
|-----------------------------------5b6r5b6r5-3---------
|-------------------------------------------------------
|-------------------------------------------------------
|-------------------------------------------------------


Lithium

X--------------------------------------------------------------------------
X---------------------------------2----------------------------------------
X-----------------------6---------2--------5-------7--------4-------7------
X----2---------6--------6---------2--------5-------7--------4-------7------
X----2---------6--------4------------------3-------5--------2-------5------
X--------------4-----------------------------------------------------------

Lounge Act

|-----------------------------------------------------------------|
|o---------------------------------------------------------------o|
|-----4----X---4--4----4------------------------5----5---5----0---|
|-----4----X---4--4----4--0---5-----5-----0-----5----5---5----0---| X2
|o----2----X---2--2----2--0---5-----5-----0-----3----3---3----0--o|
|-------------------------0---3-----3-----0-----------------------|

Love Buzz

I----------------------------I
I-0-0-0-0-0------------------I
I-2-2-2-2-2------------------I
I----------------------------I
I----------------------------I
I------------0-0-5-3-0-------I

Milk It

1|--11-7-9-7-5-4-3-2-1-5-----
2|------7-9-7-5--3-2---------

Mr. Moustache

|-----------------------|-----------------------|
|-----------------------|-----------------------|
|-----------------------|-----------------------| x4
|-----------------------|-----------------------|
|---2-------------------|---1-------------------|
|-3---3--2--1--0--1--2--|-3---3--2--1--0--1--2--|

Where Did you Sleep Last Night

E|-----------------------------------------------------|
B|-----------------------------------------------------|
G|-----------------2--2------4--4----------------------|
D|-2--2-2----------2--2-0--0-4--4-4--4-2--2-2--2-2--22-|
A|-2--2-2----------0--0-2--2-2--2-4--4-2--2-2--2-2--22-|
E|-0--0-0--0-2-3-4------3--3------2--2-0--0-0--0-0--00-|

Oh, Me

e -------------0--|--------------|------------------|-----0-----|---0---
B -------------0--|------------3-|------------3-----|-----1-0-0-|---0---
G -------------1--|------------2-|------------2--0-0|-----0-0-0-|---1---
D ------2--2-2----|------2-0-0-0-|------2-0-0-0--0-0|-2-2-------|-2-----
A --0-2----2-2----|--0-2---0-0---|--0-2---0-0-------|-3-3-------|-2-----
E -4--------------|-4------------|-4----------------|-----------|-0-----

On a Plain

-----------------------------------------------------------------------|
-7--7-7------------------------------7--7-7----------------------------|
-7--7-7--7--7-7----------------------7--7-7--7--7-7--------------------|
-7--7-7--7--7-7----------------------7--7-7--7--7-7--------------------|
-5--5-5--5--5-5--0--3--3-0-2-0-2-0---5--5-5--5--5-5--0--3--3-0-2-3-2-0-|
---------5--5-5--0--3--3-0-2-0-2-0-----------5--5-5--0--3--3-0-2-3-2-0-|

-----------------------------------------------------------------------|
-7--7-7--5--5-5-5--4--4-4--2--2-2-----7--7-7---------------------------|
-7--7-7--5--5-5-5--4--4-4--2--2-2-----7--7-7--7-7-7--------------------|
-7--7-7--5--5-5-5--4--4-4--2--2-2--0--7--7-7--7-7-7--------------------|
-5--5-5--3--3-3-3--2--2-2--0--0-0--0--5--5-5--5-5-5--0--3--3-0-2-3-2-0-|
----------------------------------------------5-5-5--0--3--3-0-2-3-2-0-|

Pennyroyal Tea

e:0------0-----0-----------0-----0-------------3-----3----------3-----3--|
B:1------1-----1-----------1-----1-------------0-----0----------0-----0--|
G:2------2-----2-----------2-----2-------------0-----0----------0-----0--|
D:2---------2-----2-----2-----2-----2-------------0----------------0-----|
A:0----0-------------0---------------------2----------------2------------|
E:--------------------------------------3----------------3---------------|

Plateau

---2----5----2----5----2----5----0-|
-----------------------------------|
-----------------------------------|
-----------------------------------|
-----------------------------------|
---2----5----2----5----2----5----0-|



---3-------------------------------|
-----------------------------------|
-----------------------------------|
-----------------------------------|
-----------------------------------|
---3-------------------------------|


-2-2-2-2-2----5-5--0------2-2-2-2-2-2---5------2-2-2-2-2---5-5-0--|
------------------------------------------------------------------|
------------------------------------------------------------------|
------------------------------------------------------------------|
------------------------------------------------------------------|
-2-2-2-2-2----5-5--0------2-2-2-2-2-2---5------2-2-2-2-2---5-5-0--|



-2-2-2-2-2----5-5--0------|
--------------------------|
--------------------------|
--------------------------|
--------------------------|
-2-2-2-2-2----5-5--0------|

Polly

e|---------------------------------|----2--2-------------------------|
B|---------------------------------|----3--3-----5--------5----------|
G|----0--------0--0-----------0----|----2--2--X--5--------5--5--0----|
B|----2--------2--0--5--5-----0----|----0--0--X--5--------5--5--0----|
A|----2--------2--0--5--5--X-------|----------X--3--------3--3-------|
E|----0--------0-----3--3--X-------|---------------------------------|

Rape Me

|-----------------|-----------------|-----------------|-----------------|
|-----------------|-----------------|-----------------|-----------------|
|-----------------|-----------------|-----------------|-----------------|
|------7---7------|-X-X-X-X-10-10---|------2---2------|-X-X-X-X-5-5-----|
|------7---7------|-X-X-X-X-10-10---|------2---2------|-X-X-X-X-5-5-----|
|------5---5------|-8-8-8-8-8--8----|------0---0------|-3-3-3-3-3-3-----|


|-----------------|-----------------|-----------------|-----------------|
|-----------------|-----------------|-----------------|-----------------|
|-----------------|-----------------|-----------------|-----------------|
|------7---7------|-X-X-X-X-10-10---|------2---2------|-X-X-X-X-5-5-----|
|------7---7------|-X-X-X-X-10-10---|------2---2------|-X-X-X-X-5-5-----|
|------5---5------|-8-8-8-8-8--8----|------0---0------|-3-3-3-3-3-3-----|


|-----------------|-----------------|-----------------|-----------------|
|--------2--------|-----------------|-----------------|-----------------|
|--------2--------|---------0-------|---------2-------|---------5-------|
|-----------------|-------2---2-----|---------2-------|---------5-------|
|-----0-----------|---0-3-----------|-----------------|------5-----5----|
|-----------------|-----------------|------0----------|-0-3-----------0-|

Sappy

|---55555--11--333--55555--11--333---|
|---55555--11--333--55555--11--333---|
|---77777--33--444--44444--33--555---|
|---77777--33--555--77777--33--555---|
|---55555--11--555--77777--11--333---|
|---55555--11--333--55555--11--333---|

Scentless Apprentice

e 0-0-0-1-1-1-1-2-2-2-2-3/9-%
B 0-0-0-0-0-0-0-0-0-0-0-0---%
G 0-0-0-0-0-0-0-0-0-0-0-0---%
D ---------------------------
A ---------------------------
D ---------------------------

School

|---------------------------------------------------------------
|--2^--2^--2------2^--2-----------------------------------------|
|--2^--2^--2---0--2^--2--0---------------2^-0-2^2-0--------7----
|--------------------------2-0-2-0-----------------2/7-7-7-7-7/9-11/|
|---------------------------------------------------------------|
|----------------------------------3/--0------------------------|

|---------------------------------------------------------------|
|-----0---------------------------------------------------- 2/7-|
|--/9---9/7/0--2--2-2-2-2-2-----------0-2-0-0-2^--0---------2-5-2-5-----|
|-------------------------------0--0----------------2-5/0-5-------------|
|-----------------------------------------------------------------------|
|-----------------------------------------------------------------------|

Sliver

6---------1-1-1-----5-3-5-6ss-----------
5---3-3-3-------333---------------------
4---------------------------------------
3---------------------------------------

Smells Like Teen Spirit

G|------------------3-3-3---------------------6-6---|
D|-3-3-3--x-x-x-x---3-3-3--5-6-6-6--x-x-x-x---6-6-5-|
A|-3-3-3--x-x-x-x---1-1-1--5-6-6-6--x-x-x-x---4-4-5-|
E|-1-1-1--x-x-x-x----------3-4-4-4--x-x-x-x-------3-|

Something in the Way

D|---------------------------------|
A|---------------------------------|
F|---------------------------------|
C|---4-----4---4-4-0-----0---0-0---|
G|---4-----4---4-4-0-----0---0-0---|
C|---4-----4---4-4-0---------0-----|

Territorial Pissings

|-------------|
|-------------|
|-------------|
|--5----------| x4
|--6----------|
|--4----------|

|-------------|
|-------------|
|--8----------|
|--9----------| x4
|--7----------|
|-------------|


|-------------|
|-------------|
|-------------|
|--10---------| x8
|--11---------|
|--9----------|

The Man Who Sold The World

E|--------------------| E|--------------------|
B|--------------------| B|--------------------|
G|--2-2-2-0--2h3p2-0--| G|--2-2-2-0--2h3p2-0--|
D|--------------------| D|--3-3-3-3--3-3-3-3--|
A|--------------------| A|--------------------|
E|--------------------| E|--------------------|

You Know You are Right

e|-------------------------------------------------------------|
b|-------------------0---------------0----------------0--------|
g|----------0----0----------0----0----------0----0-------------|
d|-------0----0----------0----0----------0----0----------------|
a|----0---------------0----------------0-----------------------|
E|-------------------------------------------------------------|



Hasta mi próximo post, digan de que banda quieren la parte 2 y la que tenga mas votos hago el siguiente post.
0
7
0
0
7Comments
      IMagallanes

      Perdon pero ESTÁN PAR EL ORTO e incompletas

      0
      ReyBife
      0
      RE416

      bueno... pero lo hice por si no sabian alguna y la querian aprender..

      0
      echonotes

      Bue no es tan dificil tampoco, no estamos hablando de la 5ta sinfonia de beethoven

      0
      dmaurixio1

      bn, aunque prefiero guitar pro

      0
      RE416

      Gracias!

      0
      Killian_CABJ

      Aguante Nirvana! +10!

      0