Popular channels

punteos faciles de guitarra

los simpsons 1. -------------------------------------------------------------------------------------------------------------
2. -------------------------------------------------------------------------------------------------------------
3. ------------------------2-----0-----------------------------------------------------------------------------
4.------------2-----4------------------2-----------------------------------------------------------------------
5.-----3--------------------------------------3--0------------------------------------------------------------- 33333
6.-------------------------------------------------------2-----2-----2-----3-----2-----2-----2-----3-----3---

como ali ( los piojos)

Gm F
--------------------------------------------------
-----------------------------------6--5-----------
-----------7-----------7-----------------5--7----- x2
--5--7--8-----5--7--8-----5--7--8-----------------
--------------------------------------------------
--------------------------------------------------

carta de un leon a otro (chico navarro) que linda cancion

1------------------------------------------------------------
2-0-0--------------0-3-0---1----1--------------------3---0---
3-----2-0---------0----------2------2-2-0----------2---2-0---
4---------4-2-----------------2-----------4-2-0--4-------2---
5--------------------------0-----------------------------2---
6------------------------------------------------------------

1-------------------------------------------7-5-4------------
2-0-3p5-3-1-0-----1p3-1-0-----0-1-0--------------------------
3-------------2-2---------2-0-------2-0----------------------
4----------------------------------------4-------------------
5------------------------------------------------------------
6------------------------------------------------------------

kilometro 11


1º:------2-2-5-3-2-2-0-0-----------------0---------------------------------------------------------------]
2º:-3-3-3---------------3-3-2-2-2-2-2-3-3-3-3-3-2-2-0-3-------0-0-3-2-2-2-0-0-----------------2-0---0----]
3º:2---------------------------------------------------2-2-2-2---------------2-2-0-0-0-0-0-2-2---2-2-2-0-]
4º:-----------------------------------------------------------------------------------------------------4]
5º:------------------------------------------------------------------------------------------------------]
6º:------------------------------------------------------------------------------------------------------]

me falta la otra estrofa xD

Estrellita

LA - A----------------------------------------------
MI - E----------------------------------------------

----------------------------------------------
--3-3--1-1--0-0-------3-3--1-1--0-0-----------
---------------------2----------------------2--------
----------------------------------------------
----------------------------------------------
----------------------------------------------

-----------0-0--------------------------------
------3-3-------3--------1-1--0-0-------------
-0-0--------------------------------2-2--0----
----------------------------------------------





chauuu !!!!! todos a la guitarra

:LOVE: A LA GUITARRA
0
0
0
0No comments yet