Popular channels

Tablaturas de hermetica Tu eres su seguridad

holaaaa milor vuelve y esta vez les deja las tablaturas de tu eres su seguridad de hermetica que buena cancion (la cancion en si es bastante jodida haci que les deceo suerte )


Intro
e|-----------------------------------------------------------------|
B|-----------------------------------------------------------------|
G|-----------------------------------------------------------------|
D|-9-9-12-11--12--9-9-12--7-7-9--9-9-12-11--12--5------------------|
A|-7-7-10--9--10--7-7-10--5-5-7--7-7-10--9--10--3--------2---------|
E|--------------------------------------------------3-2-3---3-2----|

e|---------------------------------------------------------------|
B|-------------------------------------------------------------- |
G|---------------------------------------------------------------|
D|-9-9-12-11--12--9-9-12--7-7-9--9-9-12-11--12--5----------------|
A|-7-7-10--9--10--7-7-10--5-5-7--7-7-10--9--10--3--------2-----3-|
E|-------------------------------------------------3-2-3---3-2---|

A|--------2------|
E|--3-2-3---3-2--|



FILL 1
D|-------0------|
A|--------------|
E|-3-2-3---3-2--|

RIFF 1
X2
e|------------------------------------------|
B|------------------------------------------|
D|------------------------------------------|
G|--9--5-7---12-10-9-----5------------0-----|
A|--7--3-5---10-9--7-----3--7---------------|
E|--------------------------5---3-2-3---3-2-|



e|------------------------------------------------|
B|------------------------------------------------|
D|------------------------------------------------|
G|---------0------9-9--11-11--12-12--9-9--7-7-----|
A|----------------7-7--9--9---10-10--7-7--5-5-----|
E|---3-2-3---3-2----------------------------------|

e|------------------------------------------------|
B|------------------------------------------------|
D|------------------------------------------------|
G|------------0-------------------------2---------|
A|--------------------------------------2---------|
E|---3--2--3-----3--2----3--2--0--------0---------

y otra vez el estribillo espero que les haya gustado para el proximo post les dejare la letra de la cancion
0
0
0
0No comments yet