Check the new version here

Popular channels

Tablatura del tema de apertura de Carburando 2002 (guitarra)




Tema Apertura de Carburando año 2002
Compuesta por Juan Amtonio Ferreira ( JAF )

Tab by MatiasM73

|--------------
|--------------
|--2----------- Dejar sonando
|--------------
|--------------
|--------------


|------------|---------------------------------------------------------------------------------------------
|------------|---------------------------------------------------------------------------------------------
|----2-/-6--|-9-7-6----------1-2----5b—2-4------------------------------------------4-7-----------
|--2---------|--------9-6---4-------------------2------4-4-7-4-2-/-5-/-5-5-7-9-5-6-----------------
|------------|-------------7------------------------4-----------------------------------------------------
|------------|---------------------------------------------------------------------------------------------

|-12-9---12-10-9-10-----9-10---------10-9-9--------------12 b-9-9-12-9-10-7 dejar sonar---
|------------------------12--------12-------------12-------10-----------------------------------------
|-------------------------------------------------------11b----------------------------------------------
|---------------------------------------------------------------------------------------------------------
|---------------------------------------------------------------------------------------------------------
|---------------------------------------------------------------------------------------------------------
Repite lo mismo una vez mas.


|---------------------------------------------------------------------------------------------------------
|---------------------------------------------------------------------------------------------------------
|----------------5 b---9-7-6---------1-2----5 b-2-4--------------------------9-8-7--------5 dejar..
|---------5-6-7--------------9-6---4------------------2-----4-4-7-4-2-/-5-/--------9-8-7----------
|--5-6-7-------------------------7-----------------------4---------------------------------------------
|---------------------------------------------------------------------------------------------------------
--bien rapido--


|---------------------------------------------------------------------------------------------------------
|-9----/-15-/-12----/-16-/-14----/-17-/-15----------------------------------------------------------
|---------------------------------------------------------------------------------------------------------
|---------------------------------------------------------------------------------------------------------
|---------------------------------------------------------------------------------------------------------
|---------------------------------------------------------------------------------------------------------

REFERENCIAS :

donde dice " b " : tienen que estirar la cuerda
donde dice " / " : tienen que deslizar

.......................................................................................................................................................

Y Falta el ultimo punteo q sacare pronto ¡!!!!!! PERO CON ESTO SE VAN A CONFORMAR ¡!!

Aca les dejo el tema para que lo vayan sacando !!!
OJO!!! saquenlo de a poco porque es muy trabado


link: http://www.youtube.com/watch?v=zQq7M0wZ7zQ




0
3
0
1
3Comments
      GIF
      New