Popular channels

Learn How To Play "Gerudo Valley" on Guitar, tab

Hi everyone, this is my first post here, a couple of years ago i tabbed along with a friend of mine the "gerudo valley" theme song from Zelda to acoustic guitars. Remember you will need two acoustic guitars for complete the whole thing, and don't worry, after a while, it'll be a piece of cake


link: http://www.videos-star.com/watch.php?video=kjDxABEte4c

Intro

e------------5-----4-7-9
B----------7-----6------
G------4-7--------------
D----6------------------
A--4--------------------
E-----------------------

This is what the second guitar plays pretty much throughout the whole song.
It's just a succesion of 4 chords played one after another in this order:

F#m D E C#/F
e--2-------2-------0-------1
B--2-------3-------0-------2
G--2-------2-------1-------1
D--4-------0-------2-------3
A--0-------0-------0-------0
E--0-------0-------0-------0

Main guitar

e----2-4-5-----2-4-5-----2-4-5-----2-4-5-----0-2-4-----0-2-4---2-4-2-1
B--2---------2---------3---------3---------0---------0----------------
G---------------------------------------------------------------------
D---------------------------------------------------------------------
A---------------------------------------------------------------------
E---------------------------------------------------------------------

Trumpet comes in...

e----2-4-5-----2-4-5-----2-4-5-----2-4-5-----0-2-4-----0-2-4---5-7-5-4
B--2---------2---------3---------3---------0---------0----------------
G---------------------------------------------------------------------
D---------------------------------------------------------------------
A---------------------------------------------------------------------
E---------------------------------------------------------------------

e----5-4-2-----0h2p0---------4-2-0-------------------5-4-2-----0h2p0--
B--2-------2-5-------3-----0-------3-2-3h5p3-2-----2-------2-5-------3
G---------------------------------------------------------------------
D---------------------------------------------------------------------
A---------------------------------------------------------------------
E---------------------------------------------------------------------

e---------------------
B----------7-5-----3-2
G--2-4----------------
D---------------------
A---------------------
E---------------------

e--5-4-5-4-----------------------4-2-4-0--------------
B----------2-5---3p2-3-------------------3-2---3h5-3-2
G-----------------------------------------------------
D-----------------------------------------------------
A-----------------------------------------------------
E-----------------------------------------------------

e---------------------------------------
B--------2---------2---------3---------3
G----1-2-------1-2-------1-2-------1-2--
D--4---------4---------4---------4------
A---------------------------------------
E---------------------------------------

e----------4-2--------
B------------------0-2
G--2-4----------------
D---------------------
A---------------------
E---------------------

Trumpet Solo

e--5-4-5-----4-5-7-5-4-5-4-5-----4-2-4-------4-5-4---4----
B----------7-----------------------------5-7-------7---7-6
G---------------------------------------------------------
D---------------------------------------------------------
A---------------------------------------------------------
E---------------------------------------------------------

e--5-4-5-----4-5-7-5-4-5-4-5-----7-5-7---4-5-7-9-10-12-9-10-9
B----------7-------------------------------------------------
G------------------------------------------------------------
D------------------------------------------------------------
A------------------------------------------------------------
E------------------------------------------------------------

e---------------------------------------------------------------------
B--------------------------------------------------------------3h5-3-2
G----2-1-2-----2-1-2-----2-1-2-----2-1-2-----4-3-4-----4-3-4----------
D--4---------4---------0---------0---------2---------2----------------
A---------------------------------------------------------------------
E---------------------------------------------------------------------


I hope you'all had fun as we did it when we tabbed this, see ya' mates!
0
0
0
0No comments yet