Check the new version here

Popular channels

[Aporte] ¿Principiante con la guitarra?


Aqui les dejo el post original

http://taringa.net/posts/offtopic/6436825/Principiante-con-la-guitarra-Post-personal.html

Hola a todos los de la comunidad futuros guitarristas, pues aqui les voy a dejar algunas herramientas, consejos, partituras, videos, entre otras cosas, que les serviran para ir aprendiendo poco a poco este gran arte...

Yo llevo 2 años tocando guitarra y pues aun soy aprendiz, porque para decir "yo se tocar guitarra" tienes que tocar cualquier cosa, cualquier genero, con cualquier tecnica ... eso lo aprendi de un amigo que fue mi profe y me explico muchas cosas.

Esta es mi Guitarra



No tiene nada del otro mundo pero de verdad la AMO!!!

Bueno antes que nada debes saber estas cositas




Partes de la Guitarra



Afinar tu Guitarra


Bueno aqui les dejo el programa que yo uso, necesitas un microfono obviamente

http://depositfiles.com/files/wycts8bh7

Como usarlo?

1. Descomprimes
2. Abres la carpeta, y le das doble clic a APGuitarTuner
3. Veras un recuadro con una E y unos numeros que se mueven, pues toca la primera cuerda y
fijate que quede mas o menos en la mitad y que marque E. Y asi hazlo sucesivamente con todas las cuerdas.
Recuerda que la afinada normal es la de EBGDAE (Mi, Si, Sol, Re, La, Mi)



No sabes que es EBGDAE?, Es un cifrado americano
Las notas normales son: Do, Do#, Re, Re#, Mi, Fa, Fa#, Sol, Sol#, La, La #, Si
b=bemol
#=sostenido

Son 12 notas, solo Mi y Si no tiene sostenido.
Los americanos le llaman a esto por letras: de la A a la G

A=La
B=Si
C=Do
D=Re
E=Mi
F=Fa
G=Sol

b=bemol, significa qué esta medio tono abajo(en la guitarra significa tocar un traste menos, es decir si ibas a tocar el 6to traste ahora tocaras el 6to)

#=sostenido, significa que esta medio tono arriba. (en la guitarra significa tocar un traste más, es decir si ibas a tocar el 6to traste ahora tocaras el 7mo)



Luego de afinada y de aprenderte el cifrado, ahora como sostener una guitarra



Una imagen vale mas que mil palabras jajajjaj



Que son los Tabs???


Es un método que se usa para poner que trastes debes presionar y en que cuerda. A veces el problema que pueden tener en comparación con una partitura es que no ponen el tiempo, es decir en que momento debes tocar la nota. La ventaja es qué este método es muy fácil de difundirs por internet, hay cientos de páginas dedicadas a ésto. Primero veremos como se llama cada cuerda de la guitarra para poder leer las tablaturas. La 6ta cuerda es la más gorda, y la más delgada es la 1era cuerda.



Los trastes se enumeran del 1 al 22 de arriba hacia abajo es decir de la parte donde se afinan las guitarras hasta donde están las pastilla.



Las líneas en la Tablatura

Aquí está un ejemplo de un tab. Cada línea representa una cuerda. La de más arriba es la primera cuerda y la de hasta bajo es la sexta cuerda. (Puede haber tabs de 7 líneas para las guitarras de 7 cuerdas, y tabs de 4 línas para el bajo)

E------------------------------- 1era cuerda
B------------------------------- 2da cuerda
G------------------------------- 3era cuerda
D------------------------------- 4ta cuerda
A------------------------------- 5ta cuerda
E------------------------------- 6ta cuerda

Los números de las Tablaturas

Los números que dice es el traste que debes tocar, si ésta un 0, significa que debes tocar la cuerda al aire, es decir sin presionar ningún traste.

Tercer Traste Cuerda al aire

E-----3-----------------0------- 1era cuerda
B------------------------------- 2da cuerda
G------------------------------- 3era cuerda
D------------------------------- 4ta cuerda
A------------------------------- 5ta cuerda
E------------------------------- 6ta cuerda


Orden de las Tablaturas

E----------8--------------------
B-----5-------------------------
G-------------0-----------------
D-------------------------------
A-------------------------------
E-------------------------------

Lo que dices es que debes tocar primero la segunda cuerda en el 5to traste, después la primera cuerda en el 8vo traste, y por el último la 3era cuerda suelta (es decir sin presionar ni un traste).

Notas Tocadas al mismo tiempo


E:------------6---------- -->1era Cuerda
B:------------6----------
G:-----------------------
D:-----------------------
A:-----------------------
E:-----------------------


En el ejemplo anterior, como están en la misma lína vertical, se tocan al mismo tiempo las 2 notas, es decir se toca la primera y la segunda cuerda en el sexto traste al mismo tiempo.



Tono en la Tablatura


Una de las primeras cosas que encontrarás en una tablatura es el tono en que se encuentra la canción. Lo pondrán como:

Standard Tuning (afinado normal EADGBE) ver Cifrado Americano
Drop D tuning (afinado en RE)
Drop D down a half step (Afinado en RE medio tono abajo)

Tambíen puede que veas los nombres de las cuerdas tocadas al aire (es decir sin presionar ningún traste)

Las notas de la baja a la alta - Db Ab Db Gb Bb Eb
Las notas de la baja a la alta - C G C F A D

Las letras que ves en la parte izquierda indica el nombre de las cuerdas tocadas al aire. Abajo está un ejemplo de afinado normal.

Nombre de las cuerdas tocadas al aire

E:-------------- --> 1era Cuerda
B:-------------- --> 2da Cuerda
G:-------------- --> 3era Cuerda
D:-------------- --> 4ta Cuerda
A:-------------- --> 5ta Cuerda
E:-------------- --> 6ta Cuerda

Aquí está un ejemplo de una canción tocada medio tono abajo. Se verá como sigue. Eb significa Mi bemol, es decir que está medio tono abajo.

Nombre de las cuerdas tocadas al aire

Eb:-------------- --> 1era Cuerda
Bb:-------------- --> 2da Cuerda
Gb:-------------- --> 3era Cuerda
Db:-------------- --> 4ta Cuerda
Ab:-------------- --> 5ta Cuerda
Eb:-------------- --> 6ta Cuerda

Para saber más acerca del tono de una canción ocupas saber los siguientes conceptos básicos..

Un tono completo

Equivale a 2 trastes en la guitarra. Si ocupas afinar la guitarra un tono abajo, tienes que ver cual nota esta un tono abajo de ésta.

Medio tono abajo

Equivale a un traste en la guitarra.

b=bemol, significa qué esta medio tono abajo(en la guitarra significa tocar un traste menos, es decir si ibas a tocar el 6to traste ahora tocaras el 6to). Si ponen “Eb” significa Mi bemol, y está medio tono abajo que Mi.

#=sostenido, significa que esta medio tono arriba. (en la guitarra significa tocar un traste más, es decir si ibas a tocar el 6to traste ahora tocaras el 7mo). Si ponen “Re#” significa Re sostenido, y está medio tono arriba que Re.


Lo anterior lo saque de Aqui



Bueno despues de saber esto ahora pasemos a los acordes

Lectura de acordes


Los acordes son pueden poner de varias maneras. Una de ellas es con la representación de la guitarra parada, como ésta en el siguiente diagrama.



Al principio puede ser difícil tocar todas las notas juntas:

1.- Trata de angular más tus dedos.
2.- Intenta tocar la cuerda solo con la punta de tus dedos.
3.- Al principio pueden dolor tus dedos, pero como a la semana tus dedos se acostumbran.

Personalmente lo mas dificil fue hacer cejilla, pero con el tiempo se te hace re-facil



Los círculos de la guitarra


Los círculos son una serie de acordes de una escala, específicamente son el primer, sexto, segundo y quinto grado de acorde de la escala en que se encuentran. Los círculos de guitarra sirven para practicar los acordes, como hacer las posiciones de los acordes, y para adaptar a los dedos a las cuerdas de la guitarra.

El ejemplo mas basico es el Circulo de DO

Los círculos son buenos para prácticar los acordes, muchos empiezan tocando ésto cuando estan empezando a tocar la guitar. El círculo de Do no ocupa cejilla, así que es ideal para principiantes.

El círculo de Do se compone de:



Aqui te dejo los principales acordes





La primera cancion

Bueno personalmente la primera que me aprendi fue The Man Who Sold the World de Nirvana

Aqui les dejo la cancion



Y el video la verdad es que es muy sencilla


link: http://www.youtube.com/watch?v=-Tr2DXiuI8U

Bueno el Ritmo pues sencillo

El rasgueo hacia abajo se nombra D (Down), y el Rasgueo hacia arriba U (Up)

Asi el ritmo de esta cancion quedaria DDUUDU



Bueno aqui les dejo unos videos y canciones para que practiquen ritmos, y te explican paso a paso.

Aunque personalmente me considero muy mala con los ritmos, yo me estoy es afinando con la velocidad, quiero tocar estilo Joe Satriani o Steve Vai

REM - Losing My Religion


link: http://www.youtube.com/watch?v=z9VyOHeWPFI


Lady Gaga - Poker Face


link: http://www.youtube.com/watch?v=gjtT-7chafc


You're Beautiful


link: http://www.youtube.com/watch?v=5ZHzd2kL2lE


Miley Cyrus


link: http://www.youtube.com/watch?v=DcrZR4e7Q_c




Canciones sencillas:

Lamento Boliviano, el ritmo seria DDUUDU

Mim
Me quieren agitar me incitan a gritar
Sim
soy como una roca, palabras no me tocan
Lam
adentro hay un volcán que pronto va a estallar
Mim Si7
yo quiero estar tranquilo.


Mim
Es mi situación una desolación
Sim
soy como un lamento, lamento boliviano
Lam
que un día empezó y no va a terminar
Mim Si7
ya nadie hace daño.


Mim Sim Lam Mim Si7
1.-)Uoh-yoh-yoh-yoh-oh-oh eh-eh-eh-eh-yeh


Mim Sim
2.-)Y (yo ya) estoy aquí borracho y loco
Lam Si
y mi corazón idiota siempre brillara
Mim Si
y yo te amaré, te amaré por siempre
Lam
nena no te peines en la cama
Mim Si7
que los viajantes se van a atrasar


Punteo 2 Estrofas
Repetir 1-2-2 Mim



ENANITOS VERDES – ETERNA SOLEDAD

Ritmo No 1

Acorde: X
| | | A A | | A | A
e|--|-----|---|---|---|---|---|---|----|---|--|
B|--|-----|---|---|---|---|---|---|----|---|--|
G|--|-----|---|---|---|---|---|---|----|---|--|
D|--|-----|---|---|---|---|---|---|----|---|--|
A|--|-----|---|---|---|---|---|---|----|---|--|
E|--|-----|---|---|---|---|---|---|----|---|--|
V V V | | V V | V |


Ritmo No 2
( Para que se den cuenta, este ritmo viene en el primer verso en los acordes:
Am, C y F, G

Acorde: X Y

| | | A | | | A
e|--|----|----|---|---|---|---|----|---|--|
B|--|----|----|---|---|---|---|----|---|--|
G|--|----|----|---|---|---|---|----|---|--|
D|--|----|----|---|---|---|---|----|---|--|
A|--|----|----|---|---|---|---|----|---|--|
E|--|----|----|---|---|---|---|----|---|--|
V V V | V V V v

No 3
En las ultimas notas, son unos 2 a 4 rasgueos
Así que lo dejo a improvisación de ustedes.

(Ahora solo es cosa de que los acomoden; háganlo oyendo el tema. Pero para
darles una idea usen el par de ritmos que les di, y esa parte de 2 a 4
acordes en el primer verso)

Intro:

♪♪ C F ♪♪ (x2)


C F
Eterna soledad, el tiempo danza en la madrugada
C F
y no podes dormir si están todas las luces apagadas.
Am C F G Am C
Ya se fue el tren, y esta calle nunca mas será igual,
F G F E Am
aprendiste a tener miedo, pero hay que correr el riesgo
F G ♪♪
de levantarse y seguir cayendo.


♪♪ C F ♪♪ (x2)

C F
No hay nada que perder, cuando ya nada queda en el vaso
C F
y no poder saber, que fuerte es el poder de un abrazo.
Am C F G Am C
Ya se fue el tren, y esta calle nunca mas será igual,
F G F E Am
aprendiste a tener miedo, pero hay que correr el riesgo
F E Am
de levantarse y seguir... cayendo.
F E Am F G C
pero hay que correr el riesgo, de levantarse y seguir cayendo.

Am B Em
Yo lo se..., que nadie te dijo para que todos están aquí
A#m A F
Yo se la soledad,
C F G
te da un cierto confort, no te deja mirar.

C F
Eterna Soledad...
C F G
Eterna Soledad..., se que la gente busca tu consejo,
F E Am
hay que correr el riesgo
F E Am
de levantarse y seguir... cayendo
F E Am G
pero hay que correr el riesgo
F G ♪
de levantarse, y seguir... cayendo.

♪ e|---------0---------|-0-|
B|-------1---1-------|-1-|
G|-----0-------0-----|-0-|
D|---2-----------2---|-2-|
A|-3-----------------|-3-|
E|-------------------|-x-|




Esta cancion el Intro puede ser algo complicado, pero entonces pasen a la parte ya de la cancion.

El ritmo puede ser DDUUDU

LOS DE ADENTRO – NUBES NEGRAS

Acordes Em, C, C5, G, D, D9, Am, B, B7

Intro

E-3-----2---0-----0-------0----------------------------0-------3------
B---0-----0---0-------0h1---0---3-----1---0-----------3---3------0----
G-----0-------------0---------0---0-----0---0----2--2-------2------0--
D-2---------------------------------0--------------------------2------
A-----------------3------------------------------------------------
E-------------------------------3----------------2-----------------

E-2h3p2--0-------0------------------0--------0------2-----3-
B----------0h1-----0----3-----0-1-3--------3---3-----3------
G--------------------0----0h2------------2-------2-----2----
D--------------------------------------0------------------2-
A--------3--------------------------------------------------
E-----------------------3-----------------------------------

En esta parte entra el piano y la guitarra hace este arpegio

Em C G D9
E-0-----0-----|-0-----0-----|-3-----3-----|-0-----0-----|
B---0-----0---|---1-----1---|---3-----3---|---3-----3---|
G-----0-----0-|-----0-----0-|-----0-----0-|-----2-----2-|
D-------------|-------------|-------------|-------------|
A-------------|-3-----------|-------------|-------------|
E-0-----------|-------------|-3-----------|-2-----------|
Moriría por ti

Em C G D
E-0-----0-----|-0-----0-----|-3-----3-----|-2-----2-----|
B---0-----0---|---1-----1---|---3-----3---|---3-----3---|
G-----0-----0-|-----0-----0-|-----0-----0-|-----2-----2-|
D-------------|-------------|-------------|-0-----------|
A-------------|-3-----------|-------------|-------------|
E-0-----------|-------------|-3-----------|-------------|
Por ti movería cielo y tierra, si pudiera

Em C G D
E-0-----0-----|-0-----0-----|-3-----3-----|-2-----2-----|
B---0-----0---|---1-----1---|---3-----3---|---3-----3---|
G-----0-----0-|-----0-----0-|-----0-----0-|-----2-----2-|
D-------------|-------------|-------------|-0-----------|
A-------------|-3-----------|-------------|-------------|
E-0-----------|-------------|-3-----------|-------------|
Cuanto daría por tenerte a mi lado

Am C G D9
E-0-----0-----|-0-----0-----|-3-----3-----|-0-----0-----|
B---1-----1---|---1-----1---|---3-----3---|---3-----3---|
G-----2-----2-|-----0-----0-|-----0-----0-|-----2-----2-|
D-------------|-------------|-------------|-------------|
A-0-----------|-3-----------|-------------|-------------|
E-------------|-------------|-3-----------|-2-----------|
Sin ti me sentiría acabado


Aquí en esta parte se hace este riff

C5
E-0----------------
B-1----------------
G-0----------------
D-2----------------
A-3--------2-3-2-0-
E-3----3-----------


Verso 1

Em C G D
Ya la han visto por ahí
Em C G D
Siempre tan distante he intocable como siempre
Em C G D
Eres el cielo el infierno de mis sueños
Am C G B
Y te he soñado tantas veces

Coro
Em C G D
Nubes negras sobre mi, corazón
Em C G D
Nubes negras sin ti, todo se acabaría
Em C G D
Nubes negras sobre mi, corazón
Em C G D Em
Nubes negras sin ti me moriría


Verso2

Em C G D
No podría estar sin ella
Riff
G-----0h2—2/4-2-----
D-0h2-----------0-2-

Em C G D
Me morirá del dolor,
Em
No podría soportarlo,
Riff
E------12-12-12-12-10-----
B-8/12-12-12-12-12-10-7-5-

Em C G D
Cuando no siento su calor
Am C G B
Cuando no siento su calor

Coro
Em C G D
Nubes negras sobre mi, corazón
Em C G D
Nubes negras sin ti, todo se acabaría
Em C G D
Nubes negras sobre mi, corazón
Em C G D Em
Nubes negras sin ti me moriría


En esta parte del punteo las notas se tocan dos veces,
es decir dos ciclos por cada nota


Am C G
E----------------------------------------------------12-10-------
B------12h13-13-13-12-10-13-12-----------------8/12--------12-10-
G------------------------------12-9--5/7-7-9-7-------------------
D----------------------------------------------------------------
A----------------------------------------------------------------
E----------------------------------------------------------------

D
E-----10-----8-----7-----5----3-
B-5/7----3/5---3/5---3/5---1/3--
G-------------------------------
D-------------------------------
A-------------------------------
E-------------------------------

En esta parte las notas van rasgueadas de abajo hacia arriba

C G Am
Huuuuuuuuu estoy cansado del juego
C
No puedo soportar

Coro
Em C G D
Nubes negras sobre mi, corazón
Em C G D
Nubes negras sin ti, todo se acabaría
Em C G D
Nubes negras sobre mi, corazón
Em C G D C5
Nubes negras sin ti me moriría




Pues si quieres aprender guitarra practica todos los dias, minimo una hora, grabate esto realmente funciona, y ves que errores cometes, si te quieres aprender una cancion y la estas practicando pero sientes que no se escucha bien, descansa y espera una semana o depronto menos y vuelve a tocarla, veras que se te hace mas sencillo y ademas se va a escuchar mejor, ya que tienes que esperar que el cerebro procese bien la info.

Bueno creo que me faltaron algunas cosas, pero bueno con eso tienen un buen comienzo

Recomiendo para los que quieren practicar punteo descarguen el GuitarPro

Y algunas paginas con tablaturas:


http://lacuerda.net/

http://www.ultimate-guitar.com/

Espero les alla servido y pronto subire mas cosas

0
0
0
2
0No comments yet