About Taringa!

Popular channels

[Guitarra] Aprende Heroes of Our Time de DragonForce

esta es una de las tablaturas mas faciles de DragonForce



S S S S S S S S S S S S S S S S
E||---------------------------10------------------------|
B||------------------------10----10---------------------|
G||--9h-11--------11----11----------11-----------11h-14-|
D||--------11h-12----12----------------12-11h-12--------|
A||-----------------------------------------------------|
E||-----------------------------------------------------|


T T
|---3--|
S S S S S S S S S S S S S Q
----------------17p-14-17p-14------------------17----|
--14h-15-14h-15---------------17-14h-15-14h-15--------|
------------------------------------------------------|
------------------------------------------------------|
------------------------------------------------------|
------------------------------------------------------|


|--3--|
S S S S S S S S S S S S S S S S S
--15-14-12-15-14-12----12----------------------------|
--------------------15----15-14-12-15-14-12----12----|
--------------------------------------------14----14-|
-----------------------------------------------------|
-----------------------------------------------------|
-----------------------------------------------------|


PH
S S S S S S S S S S S S Q
--------------------------------------<>14b----|
-----------------------------------------------|
--12-11-12-14-12-11----------11-12-14----------|
--------------------14-12-14-------------------|
-----------------------------------------------|
-----------------------------------------------|


^
|---3---|
E S S E E E S S S S S S S S
---x------------------------------------------------|
---x--12-15-14--13--12------------------------------|
---x--------------------14h-16p-14-12-11h-12p-11----|
---x---------------------------------------------14-|
---x------------------------------------------------|
---x------------------------------------------------|


1/ 1/ 1/ 1/ 1/ 1/
E E E E H Q E E E E E E
-------------------------------|-------------------------------|
------15------14--<>15~--------|--12----14--15--L--12--14--15--|
-------------------------------|-------------------------------|
--12------12-------------------|-------------------------------|
-------------------------------|-------------------------------|
-------------------------------|-------------------------------|


tr tr tr tr PH
Q Q Q Q H E E E E
--14(12)----12(10)------------------------|--<>14~--------L----------12--|
----------------------15(17)----14(15)----|------------------12--15------|
------------------------------------------|------------------------------|
------------------------------------------|------------------------------|
------------------------------------------|------------------------------|
------------------------------------------|------------------------------|


PH
H Q. E H E Q.
--<>12b--------L------10--|--17b--------L--17b------|
--------------------------|-------------------------|
--------------------------|-------------------------|
--------------------------|-------------------------|
--------------------------|-------------------------|
--------------------------|-------------------------|


H Q Q
-------------/19----/17----|
--15-----------------------|
----------------------------|
----------------------------|
----------------------------|
----------------------------|


T T T
S S S S S S S S S S S S S S S S
---------------------------------------------------------------|
--22p-19p-15h-19p-15-22p-19p-15p-12h-15-22p-19p-15p-12h-15h-19-|
---------------------------------------------------------------|
---------------------------------------------------------------|
---------------------------------------------------------------|
---------------------------------------------------------------|


T T T T T
|---6---| |---6---| |---6---| |-----|
S S S S Q S S S S S S S S S S E
--------------22----21h-22p-21h-22p-21h-22-19h-21p-19h-21-21g17--|
-----------19----------------------------------------------------|
--------19-------------------------------------------------------|
-----19----------------------------------------------------------|
--17-------------------------------------------------------------|
-----------------------------------------------------------------|


|--6--| |--6--| |--6--| |--6--| |--6--| |--6--| |--6--| |--6--|
S S S S S S S S S S S S S S S S S S S S S S S S
--14-11----11----------------------------------11----11-14-17-14-20-17-20-|
--------13----13-10-13-10----10----10-13-10-13----13----------------------|
--------------------------11----11----------------------------------------|
--------------------------------------------------------------------------|
--------------------------------------------------------------------------|
--------------------------------------------------------------------------|


E E E E E E E E
----------------------------------|
----------------------------------|
--x/--x/--x/--x/--x/--x/--x/--x/--|
----------------------------------|
----------------------------------|
----------------------------------|


PH PM PM PM PM PM PM PM PM PM PM PM PM PM PM
E S S S S S S S S S S S S S S
---------------------------------------------------|
---------------------------------------------------|
--/<>12--10----------------------------------------|
------------13-10-13-10----------------------10-13-|
------------------------13-10----------10-13-------|
------------------------------13-11-13-------------|


PM PM PM PM PM PM PM PM PM PM PM PM PH PH
S S S S S S S S S S S S E E
---------------------------------------------------|
---------------------------------------------------|
--------------12----------12-10----10-<>12s--<>15--|
--10-13-12-13----13-12-13-------13-----------------|
---------------------------------------------------|
---------------------------------------------------|


PM PM PM PM PM PM PM PM PM PM PM PM PM PM PM PM
S S S S S S S S S S S S S S S S
--------------------------------------------------|
--------------------------------------------------|
--17-17-15-12-15-15-12-10-12-10----10-12-15-12-10-|
--------------------------------13----------------|
--------------------------------------------------|
--------------------------------------------------|


T T T T T T T T T T T T
|--6--| |--6--| |---6--| |---6--| |---6--| |---6--| |---6--| |---6-
S S S S S S S S S S S S S S S S S S S S S S S
--11p-8-11p-8-11p-8-15p-11-15p-11-15p-11-18p-15-18p-15-18p-15-20p-15-20p-15-20p-
--------------------------------------------------------------------------------
--------------------------------------------------------------------------------
--------------------------------------------------------------------------------
--------------------------------------------------------------------------------
--------------------------------------------------------------------------------


|---6--| |--6--| |---6--| |--6--| |---6--| |--6--| |---6--| |--6--|
S S S S S S S S S S S S S S S S S S S S S S S S
--15p-11----------11-13p-10----------10-15p-11----------11--20p-15----------15-|
---------13----13-----------11----11-----------13----13------------16----16----|
------------12-----------------12-----------------12------------------17-------|
-------------------------------------------------------------------------------|
-------------------------------------------------------------------------------|
-------------------------------------------------------------------------------|


S S S S S S S S S S S S S S S S
--18-15----15-------------------------------------|
--------18----18-16----16----------------------16-|
--------------------17----17-15----------15-17----|
--------------------------------17-15-17----------|
--------------------------------------------------|
--------------------------------------------------|


PH
E. E. E Q E E S S E H E E
--/16---15---15--<>15----13--11--|--13-11-13--L--------15--18--|
----------------------------------|-----------------------------|
----------------------------------|-----------------------------|
----------------------------------|-----------------------------|
----------------------------------|-----------------------------|
----------------------------------|-----------------------------|


PH
E E E S S E. E. E E E E E E E Q
--20--20--L--20-18-20---18-------|--18--18--L--20--<>15------------|
-----------------------------20--|------------------------18--16----|
---------------------------------|----------------------------------|
---------------------------------|----------------------------------|
---------------------------------|----------------------------------|
---------------------------------|----------------------------------|


PM PM PM PM PM PM PM PM PM PM PM PM PM PM PM PM 1/
S S S S S S S S S S S S S S S S Q E E H
--------------------------18-18-------18-20-18-20-|----------------------------|
--------------18----18-20-------20-18-------------|--/18----20--<>16--L--------|
--20-20-17-20----20-------------------------------|----------------------------|
--------------------------------------------------|----------------------------|
--------------------------------------------------|----------------------------|
--------------------------------------------------|----------------------------|


|---6--| |--6--| |---6--| |--6--| |---6--| |--6--| |---6---| |--6--|
S S S S S S S S S S S S S S S S S S S S S S S S
--16p-11----------11-15p-11----------11-13p-10----------10---------------------|
---------13----13-----------13----13-----------11----11----15h-16p-15-13-------|
------------12-----------------12-----------------12---------------------15-13-|
-------------------------------------------------------------------------------|
-------------------------------------------------------------------------------|
-------------------------------------------------------------------------------|


PM PM PM PM PM PM PM PM
S S S S S S S S S S S S S S S S
--13s-18s-13s-18s-13s-18s-13s-18-------------------------|
---------------------------------------------16-18-16-18-|
---------------------------------15-15-19-15-------------|
---------------------------------------------------------|
---------------------------------------------------------|
---------------------------------------------------------|


PH
E. E. E Q E E
--/15---15---15--<>15----13--11--|
----------------------------------|
----------------------------------|
----------------------------------|
----------------------------------|
----------------------------------|


T T T T T T T T 1/
T T T T T T T T T T T T T T T T H
----------------------------------------------------------------------|
--18p-15-18p-15-18p-15-18p-15-20p-15-20p-15-20p-15-20p-15-<>18--------|
----------------------------------------------------------------------|
----------------------------------------------------------------------|
----------------------------------------------------------------------|
----------------------------------------------------------------------|


W W W W W W W W W W W W W W W
E E E E E E E E E E E E E E E E
---------------------------------|----------------------------------|
--10--13--L--10--13--10--13--10--|--18--17--18--17--18--17--18--17--|
---------------------------------|----------------------------------|
---------------------------------|----------------------------------|
---------------------------------|----------------------------------|
---------------------------------|----------------------------------|


|--3--|
S S S S S S S S S S S S S S S S S
--22-20----20----------------------------------------|
--------22----22-20-18-22-20-18-17-18-17----17-------|
-----------------------------------------19----19-17-|
-----------------------------------------------------|
-----------------------------------------------------|
-----------------------------------------------------|


S S S S S S S S S S S S E E
----------------------------------------------|
-----17---------------------------------------|
--19----17-19-17----------22------------------|
-----------------20-19-17----17-19-17---------|
--------------------------------------15--17--|
----------------------------------------------|


S S S S S S S S S S S S S S S S
--------------------------10----------------------|
--------------------11-13-------------------13-15-|
--------------10-12----------10----10-12-15-------|
-----------12-------------------12----------------|
--------13----------------------------------------|
--10-13-------------------------------------------|


|--3--|
E S S S S S E S S S S Q
--15--------------20-22--22-20----20-22----|
---------------17--------------22----------|
------16----17-----------------------------|
---------17--------------------------------|
-------------------------------------------|
-------------------------------------------|


|------3------| |------3------| |------3------| |------3------
E E E E E E E E E E E
--22--22g20--22g18--22g17--22g20--22g18--22g17--22g18--22g17--22g15--22g17--22g1
--------------------------------------------------------------------------------
--------------------------------------------------------------------------------
--------------------------------------------------------------------------------
--------------------------------------------------------------------------------
--------------------------------------------------------------------------------


W
|------3------| |------3------|
E E E E E E H
--22g13--22g12--22g13--22g12--22g13--22g12--8--------|
-----------------------------------------------------|
-----------------------------------------------------|
-----------------------------------------------------|
-----------------------------------------------------|
-----------------------------------------------------|


|--3--| |--3--| |--3--| |--3--|
S S S S S S S S S S S S S S S S S S T T T T
--18-13----------------------13-17-18-17-13----------13-18-13-18-13-|
--------15----------------15----------------15----15----------------|
-----------14----------14----------------------14-------------------|
--------------15----15----------------------------------------------|
-----------------17-------------------------------------------------|
--------------------------------------------------------------------|


|--3--| |--3--| |--3--| |--3--| |--3--| |--3--|
S S S S S S S S S S S S S S S S S S S S S S
--15-12----------------------15-12----15-12---------------------------|
--------13----------------13-------13-------13------------------------|
-----------12----------12----------------------12-------14S-10S-12S-9-|
--------------14----14----------------------------14------------------|
-----------------15----------------------------------15---------------|
----------------------------------------------------------------------|


S S S S S S S S S S S S S S S S
--------------------------------------12-13-15-17-|
-----------------------------11-13-15-------------|
--------------------10-12-14----------------------|
-----------10-12-14-------------------------------|
--10-12-13----------------------------------------|
--------------------------------------------------|


W W
S S S S S S S S Q Q
--18-17-18-20-18-17-15-----------------|
-----------------------18-15s----17----|
---------------------------------------|
---------------------------------------|
---------------------------------------|
---------------------------------------|


|--3--|
S S S S S S S S S S S S S S S S S
--13-12----------------12-13-12-13-15-13-15-17-15-17-|
--------15-13-11-13-15-------------------------------|
-----------------------------------------------------|
-----------------------------------------------------|
-----------------------------------------------------|
-----------------------------------------------------|


PH
|--3--|
S S S S S S S S S S S S S Q
--20-18-17-18-20-18-17-15-17-15-13-15-17-<>20----|
-------------------------------------------------|
-------------------------------------------------|
-------------------------------------------------|
-------------------------------------------------|
-------------------------------------------------|


|--3--| |--3--|
S S S S S S S S S S S S S S S S S S
--18-17-15-13-12-10-13-12-10-13-12-10-13-12-10----------|
-----------------------------------------------13-11-10-|
--------------------------------------------------------|
--------------------------------------------------------|
--------------------------------------------------------|
--------------------------------------------------------|


|--3--| |--3--| |--3--| |--3--| |--3--| |--3--| |--3--| |--3--|
S S S S S S S S S S S S S S S S S S S S S S S S
--------------------------------------------------------------------------|
--------------------------------------------------------22-18----------18-|
--15-12----------12-19-15----------15-22-19----------19-------17----17----|
--------12----12----------15----15----------19----19-------------17-------|
-----------12----------------15----------------19-------------------------|
--------------------------------------------------------------------------|


PM PMPM PM PMPM PM PM PM PMPM PM PM PMPM PM
S S S S S S S S S S S S S S S S
--------------------------------------------------|
--------------------------------------10----------|
--------------------------11-11-9--11----11-9--11-|
--9-----9--11-12-9--11-12-------------------------|
-----12-------------------------------------------|
--------------------------------------------------|


|--6--| |--6--| |--6-| |--6--|
S S S S S S S S S S S S S S S S S S S S
--14-10----10-12-14-12-9----9-10-12-14-14-12-12-10-10-9-9-|
--------12---------------10-------------------------------|
----------------------------------------------------------|
----------------------------------------------------------|
----------------------------------------------------------|
----------------------------------------------------------|


PH
E. E. E E. E. E
--/17---14-------<>14------------|
-------------17----------17---15--|
----------------------------------|
----------------------------------|
----------------------------------|
----------------------------------|


|--6--| |--6--| |--6--| |--6--| |--6--| |--6--| |--6--| |--6--|
S S S S S S S S S S S S S S S S S S S S S S S S
--------------------------------------------------------------------------|
--17-15-17-15-17-15-19-15-19-15-19-15-17-12-17-12-17-12-15-10-15-10-15-10-|
--------------------------------------------------------------------------|
--------------------------------------------------------------------------|
--------------------------------------------------------------------------|
--------------------------------------------------------------------------|


|--3--| |--3--| |--3--| |--3--|
S S S S S S S S S S S S S S S S S S S S
--17-14----17-17-14-------17-15-14-12----12-15-14----17-14----|
--------15----------17-15-------------15----------15-------15-|
--------------------------------------------------------------|
--------------------------------------------------------------|
--------------------------------------------------------------|
--------------------------------------------------------------|


S S S S S S S S T T T T T T T T T T T T T T T T
--17-14----17-17-14----17-12-9-12-9-14-10-14-10-15-12-15-12-17-14-17-14-|
--------15----------15--------------------------------------------------|
------------------------------------------------------------------------|
------------------------------------------------------------------------|
------------------------------------------------------------------------|
------------------------------------------------------------------------|


S S S S S S S S S S S S S S S S
--------------------------------------------------|
--------------------------12----12-14-15-12-14-15-|
--------11-12-14-11-12-14----12-------------------|
--12-14-------------------------------------------|
--------------------------------------------------|
--------------------------------------------------|


S S S S S S S S S S S S Q Q Q Q Q
-----------12-14-14-------15-15-14----17----|--L---------------------|
--15----15----------15-15----------15--------|------------------------|
-----14--------------------------------------|-------/11----9----7----|
---------------------------------------------|------------------------|
---------------------------------------------|------------------------|
---------------------------------------------|------------------------|


Q E E Q E E Q. Q. Q
----------------------10--12--|--/14------12------10----|
--10----10--12--10------------|-------------------------|
------------------------------|-------------------------|
------------------------------|-------------------------|
------------------------------|-------------------------|
------------------------------|-------------------------|


S S E Q H Q. Q. Q
--------------------------|-------------------------|
--12-10-12--L----L--------|--/12------14------15----|
--------------------------|-------------------------|
--------------------------|-------------------------|
--------------------------|-------------------------|
--------------------------|-------------------------|


E E E E Q Q
--10-------------14----10----|
-------10---------------------|
--------------11--------------|
------------------------------|
------------------------------|
------------------------------|


T T T T T T
S S S S S S S S S S S S S S S S
--12p-9p-5h-9-12p-9-14p-9-17p-9p-5h-9-17p-9-19p-9-|
--------------------------------------------------|
--------------------------------------------------|
--------------------------------------------------|
--------------------------------------------------|
--------------------------------------------------|


T T T T T T
S S S S S S S S S S S S S S S S
--21p-9p-5h-9-21p-9-22p-9-21p-9p-5h-9-22p-9-24p-9-|
--------------------------------------------------|
--------------------------------------------------|
--------------------------------------------------|
--------------------------------------------------|
--------------------------------------------------|


S S S S S S S S S S S S S S S S
--19p-15----15------------------------------------15-|
---------15----15------------------------------15----|
------------------16----16------------------16-------|
---------------------17----17------------17----------|
------------------------------17p-14h-17-------------|
-----------------------------------------------------|


T T T T T T T T T T T
T T T T T T T T T T T T T T T T T T T T T T
--19p-15-19p-15-17p-15-17p-15-19p-15-19p-15-21p-15-21p-15-22p-15-22p-15-21p-15-2
--------------------------------------------------------------------------------
--------------------------------------------------------------------------------
--------------------------------------------------------------------------------
--------------------------------------------------------------------------------
--------------------------------------------------------------------------------


¿queres verlo en HD? click para verlo en YouTube: http://www.youtube.com/watch?v=lRt54xjIq7w&feature=related
0No comments yet
      GIF