Check the new version here

Popular channels

Como tocar quiero ser tu sombre (Guitarra)

Hola amigos este es mi primer post y hoy quiero mostrarle como tocar quiero ser tu sombra:

Versión Original :

1|--0-1-0-------8-0-8-0-8-0-8-10-7-6-7--|
2|--------4-5---------------------------|
3|--------------------------------------|
4|--------------------------------------|
5|--------------------------------------|
6|--------------------------------------|

1|--0-1-0-------7-0-7-0-7-0-7-8-5-4-5---|
2|--------4-5---------------------------|
3|--------------------------------------|
4|--------------------------------------|
5|--------------------------------------|
6|--------------------------------------|

1|--0-1-0-----5-5-5-5-3-3-3-5-3-1-0-1---|
2|--------4-5---------------------------|
3|--------------------------------------|
4|--------------------------------------|
5|--------------------------------------|
6|--------------------------------------|

1|--1-0-------------------0-1-0-----------0-5--|
2|-----3-1-0-------0-1-3--------3-1-0---1------|
3|-----------2-1-2--------------------2--------|
4|---------------------------------------------|
5|---------------------------------------------|
6|---------------------------------------------|

1|--12--12-10-0--12-10-0--12-10-0--12-10-0--|
2|------------------------------------------|
3|------------------------------------------|
4|------------------------------------------|
5|------------------------------------------|
6|------------------------------------------|

1|--10-8-0--10-8-0--10-8-0--10-8-0----------|
2|------------------------------------------|
3|------------------------------------------|
4|------------------------------------------|
5|------------------------------------------|
6|------------------------------------------|

1|--8-7-0--8-7-0--8-7-0--8-7-0--------------|
2|------------------------------------------|
3|------------------------------------------|
4|------------------------------------------|
5|------------------------------------------|
6|------------------------------------------|

1|--7-5-0--7-5-0--7-5-0--7-5-0--------------|
2|------------------------------------------|
3|------------------------------------------|
4|------------------------------------------|
5|------------------------------------------|
6|------------------------------------------|

1|--5-3-0--5-3-0--5-3-0--5-3-0----3-1-0-1---|
2|------------------------------------------|
3|------------------------------------------|
4|------------------------------------------|
5|------------------------------------------|
6|------------------------------------------|

1|--1-0-------------------0-1-0-----------0-5--|
2|-----3-1-0-------0-1-3-------3-1-0---1-------|
3|-----------2-1-2-------------------2---------|
4|---------------------------------------------|
5|---------------------------------------------|
6|---------------------------------------------|
0No comments yet