Life is simple in the Moonlight [TABS] Nick's Part




Nick Valensi (Guitarra acústica)

* Esta canción solo pueden tocarla argentinos, europeos(no españoles) y japoneses... Abtenerse chilenos, peruanos, bolivianos, mexicanos, mutantes, etc... argentinos villeros tampoco

* Consejo: Para el Intro, el movimiento del pick(púa, plumilla) es (abajo, abajo, arriba); (abajo, abajo, arriba); (abajo, arriba)

* Estos tabs son exclusivos para guitarra acústica y si tenés $ 2000.00 para una Les Paul Gibson me mandas MP y te doy las tabs completitas


INTRO

e|----9----9---9--------------14----14---14-------11--11-11-------9---9--9-----------|
B|---7----7-----------------12----12--------------9---9-------------9---9----------------|
G|--7----7----7-/slide---12----12-----12------9---9---9--------9---9--9--------------|
D|---------------------------------------------------------------------------------------------|
A|---------------------------------------------------------------------------------------------|
E|---------------------------------------------------------------------------------------------|

PRE-CORO

B|-------------------------------------------------------------------------------------------------|
G|-----7-------7-------6--------6---------------------------------------------------------------|
D|-9-9----9-9------7-7----7-7-----------7------7-----------6-------6-----------------------| x2
A|--------------------------------------9-9-----9-9-------7-7-----7-7-------------------------|
E|-------------------------------------------------------------------------------------------------|

B|-----------------------------------------------------------------------------------------------------------|
G|-----7------7----------13---------13----------------------------------11--------11-----------11-----|
D|-9-9-- -9-9-----15-15----15-15-----------11---------11----12-12-----12-12----11-11---------|
A|------------------------------------ ---12-12---- 12-12-----------------------------------------------|
E|-----------------------------------------------------------------------------------------------------------|