About Taringa!

Popular channels

Adivina quienes son!! - Parte 2

por favor contesten en forma ordenada y solo participen una sola vez!! (gracias a los que me dieron puntos!)
este post esta dedicado al amor de mi vida, Lalita

------------1---------------------- (el barbudo)





-----------2------------------------



-----------3--------------------(el chabon)





----------------------4------------ (esta no la sacan ni en pedo jaja)




------------------5-----------------




--------------------6-----------( el chabon)




---------------------7---------------------




---------------------8------------------------




------------------9----------------------------




------------------10----------------------------



a romperse la cabezaaaaaaa
29Comments