Check the new version here

Popular channels

canciones de la renga para tocar 1°parte

Como yo voy a san pedro este sábado 13/12 y se que muchos no van a poder ir… les dejo este post con 41 temas de la renga para tocar en la viola… ajajá
También para los que les guste la renga y están aprendiendo.
Lo separe en dos partes para que entren


Lista:

1° parte

2+2=3
A la carga mi rock and roll
Al que he sangrado
Arte infernal
Bailando en un pata
Blues cardiaco
Bien alto
Blues cardiaco
Born to be wild
Buseca y vino tinto
Cuándo vendrán
El cielo del desengaño
El juicio del ganso
El rey de la triste felicidad
El viento que todo empuja
En el baldío
Estalla
hey hey my my solo
Hielasangre
La nave del olvido



2 + 2 = 3


Intro: D C#m / C#m D E / F5 F#5 G5 G#5 A


A7 D
Si dos más dos diera tres
F# Bm
este mundo no seria como es
G D E7 D7 E7
la cuenta no daría lo que tengo en tal caso
A A7 A
el cuatro sería rengo


Si dos más dos diera tres
este mundo no lo verías como hoy lo ves
y en la suma inoportuna de los lados al cuadrado
le faltaría un costado


Si dos más dos diera tres
de seguro me calmaría un poco el stress
habría un punto menos de inflación
y el almacén un peso a mi favor


Si dos más dos diera tres
este blues no seria como es no o o...
en vez de dos por cuatro
sería cuatro por tres
o tres por tres o dos por tres
¿dos por tres? (llueve)

(solo de saxo sobre los básicos, como la 1º estrofa)

.G .D
Y que distinta seria la vida
F# Bm
si a cada suma le haría un sustraendo
G D
Y que dichosa seria nuestra suerte
F# Bm
que los cornudos serian unicornios

G D-C#m-Bm
Y a mí me faltaría un día me-e-nos
G A D
para el alta en el manicomio

Finaliza: G A D / Eb D


A la carga mi rock and roll



Intro:
[Sol5 Mi5 Do5]x4

Sol5 Do5 Sol5 Do5
A la carga mi rocanrol desborda cualquier mar
Sol5 Do5 Sol5 Do5
que contenga el gran vaso de yu cola de paja

y si mi boca de dragón enciende la mecha
y no te gusta que diga una sola verdad
vas a usar tu prensa para aplastarme
y a la cancion de la vida vas a desterrar

Lam
Vas a estar perdiendo el tiempo
Do
porque atrás nuestro viene un viento
Sol
que derriba todo lo que toca
Re
que mi canto ya tiene otras bocas
Do
y ya nadie, nadie lo puede callar

Base intro x4

A la carga mi rocanrol desborda cualquier mar
que contenga el gran vaso de tu cola de paja
y si mi lengua de fuego no tiene ni un pelo
y no te gusta que cuente la realidad
vas a apuntar tu cañón a nuestras mentes
y a la canción de la vida aniquilar

Vas a estar perdiendo el tiempo
porque atrás nuestro viene un viento
que derriba todo lo que toca
porque mi canto ya tiene otras bocas
y ya nadie, nadie lo puede callar

Base de intro x2

El solo es con base de [Re5 Do5]x2

Al que he sangrado

Intro: D5

B5 C5 G5 D5
Dame lo que me falta de silencio para contestar,
B5 C5 G5 D5
a mi vieja pregunta que estéril teme quedar,
E5 A5 C5 G5
a mi corazón que ya rebalsa de mi pecho,
E5 A5
a mi gran amor,

C5 B5 A5 C5
Al que he sangrado de utopías, de locuras y agonías,
G5 D5 E5
¿qué más sé? yo no tengo la respuesta
C5
de por qué los traté así.

1º Solo de Guitarra

B5 C5 G5 D5
Dame lo que me falta de silencio para contestar,
B5 C5 G5 D5
en mi antiguo dolor, a quién busco, a quién soy,
E5 A5 C5 G5
al que sentencié con el éxtasis de mi ciencia,
E5 A5
al que todo le doy,

C5 B5 A5 C5
Al que he sangrado de utopías, de locuras y agonías,
G5 D5 E5
¿qué más sé? yo no tengo la respuesta
C5
de por qué los traté así.

2º Solo de Guitarra

Final: (E5 - G5 - A5 - G5 - E5) x 4

Arte infernal

Intro: e ----------------------------------------->P
b ----------------------------------------->o
g ---------------------2--2--2--2---------->r
d ---------------------2--2--2--2---------->
a ---------------------0--0--0--0---------->4
E -0--3-4---0--3-4--0---------------------->

Em F#m
Ese adiós te rompió en pedazos,
A Em
Tus ganas de seguir.
Em F#m
El que sabe que ya no hay caso,
A Em
Esta dispuesto a sufrir.


Las cuestiones de los fracasos,

Siempre fueron así.

No quieres dormir en otros brazos,

si te dan a elegir.


Coro5 A5
Los tallos de esa rosa
D5 A5
Siempre van a lastimar,
D5 A5
Dios las hizo tan hermosas,
B5 D5 Em
Con un arte infernal.

Intro: x4

Solo: sobre estrofas y coro.


A un buen recurso apuestan los hombres

antes de decidir

Esa botella no tiene nombre

y ahora me toca a mi.


Pero todo no termina tan pronto

aun que lo creas asi

es el final y siempre empieza todo

con el riesgo al vivir.

Coro


Final:Intro


Bailando en una pata

A
Golpea el cartero una vez mas
llegan impuestos para pagar
C#7 D7
de donde voy a sacar
B
ese maldito dinero
E7 A E7
que siempre me suele faltar


Me cortan la luz, me cortan el gas
el alquiler aumenta cada dia mas
como puede ser que labure todo el dia
y nunca llegue a fin de mes

D7
Igual estoy bailando en una pata
A
aunque la plata no me alcanza
D7
estoy bailando en una pata
E7
podran sacarme todo
D7 A E7
todo menos el rock and roll


SOLO DE SAXO: A C#7 D7 B E7 A E7


Si su trabajo es hacerme infeliz
tengo el remedio para combatir
y es la alegria nene
que si una vez se la robaron,
no va a pasar lo mismo esta vez


D7
Igual estoy bailando en una pata
A
aunque la plata no me alcanza
D7
estoy bailando en una pata
E7
podran sacarme todo
D7 A
todo menos el rock and roll
E7
podran sacarme todo
D7 A
todo menos el rock and roll

FINAL: A-C#7-D7-D#7-E7-B-A


bien alto

Intro

[(Mi5)x3 Sol5 La5 La#5 La5 Sol5] x4


Sol Mim Sol
Hasta cuánto de alta es esta altura
Mim Sol Re Resus4
que siempre hay más y yo más quiero subir
Do Sol
hasta dónde llegará esta pendiente
Mim Do
cuanto más arriba haya
Re
más abajo habrá también

Intro x2

¿Hasta dónde? si ya voy cruzando el cielo
¿Hasta dónde? si nunca puedo alcanzar
¿Hasta cuando? que nunca se ve la cima
El horizonte siempre siempre
es un peldaño más

Intro x2

Do Sol
Cada vez estoy más trepado
Do
y el abismo bajo mis pies
Sol Mim
siempre tiene más abajo
Do
pero a dónde queda llegar
Sol Mim
de este arriba sin final
Do Re
este arriba cada vez más alto está

Intro x6

Sol Mim Sol Mim Sol Re
Do Sol Mim Do Re Mim

Sol Mim
Apunado de locura
Sol Mim
va a dejarme esta altura
Sol Mim
nunca tiene suficiente
Sol Mim
se eleva siempre más y más
Do
tanto vértigo es la vida
Sol Mim
no hay más que hacer solo subirla
Do Re
morir abajo como también arriba.

Resus4
E---2----
B---2----
G---3----
D---0----
A---x----
E---x----


blues cardiaco

INTRO:
e----------------------------------------------------------
B-----------------------------------------5----------------
G-----5-8-7-5---8-7-5-----------5-8-7-5-----8-7-5----------
D-5-7---------7-------5-7--5--7---------5---------7--5-----
A----------------------------------------------------------
E----------------------------------------------------------

e-----------------------------------------------------------
B-----------------------------------------------------------
G---5-8-7-5---8-7-5-----------5-8-7-5---8-7----7-5-7-5-7---
D-7---------7-------5-7--5--7---------7--------7-5-7-5-7---
A-----------------------------------------------------------
E-----------------------------------------------------------

e-----------------------------------------------------------
B-2-2------------5-5-5-8--5/--------------------------------
G------7-5-7-5------------------------------5---------------
D--------------7--------------7-5-7-5-7-5-7---7-5-7-5-7-5---
A---------------------------------------------------------7-
E-----------------------------------------------------------

e--------------------------------
B--------------------------------
G---------------5----------------
D-7-5-7-5-7-5-7---7-5-7-5-7-5----
A-----------------------------7--
E--------------------------------

RIFF
e-----------------------
B-----------------------
G-----------------------
D-----------------------
A-----------3-----------
E-5-3-5-3-5---5-3-5-3-0-

[A G A G A G A C]
Para ser un tipo educado
[A G A G E]
me pusieron a estudiar
[A G A G A G A C]
me mandaron a un privado

y despues a un hermoso industrial

[D C D C D A]
Y sin embargo no aprendi nada
[D C D C D A]
Y sin embargo aprendi nada
[C E E]
pero a pesar de todo enconte mi lugar

[A G A G A G A C]
Para ser un buen ciudadano
[A G A G E]
me enseñaron a desfilar
[A G A G A G A C]
a no mirar a los costados

y a seguir el rataplán.

[D C D C D A]
Y sin embargo perdía el paso
[D C D C D A]
Y sin embargo perdía el paso
[C E E]
pero a pesar de todo encontré mi lugar.

[A G A G A G A C]
Para saborear la vida
[A G A G E]
me dijeron ¡a trabajar!
[A G A G A G A C]
a sentir el frío en mis manos

y a mi espalda oírla quebrar.

[D C D C D A]
Y sin embargo nada valía nada
[D C D C D A]
sin embargo nada vale nada
[C E E]
pero a pesar de todo encontré mi lugar.

SOLO: A5 G5-A5 [D5 A5 D5 A5 C5 E5 RIFFx2] RIFFx2

D C D C D
Figuritas, medallitas y diplomas
A
este sistema no me supo enamorar
D C D C D
pero el tiempo no pasa en vano
A C E
y la vida solo me sirvio para encontrar un lugar
A G A G A G A
y pudrirme en mi rocanrol...

born to be wild

INTRO

E B D E
e--------------------------------------------------------------
B-9--99-9-9--4-7-9-----------9-99------------------------------
G-9--99-9-9--4-7-9---*3-Then-9-99-7/9-7-97---------------------
D-9--99-9-9--4-7-9-----------9-99------9--9/7------------------
A-7--77-7-7--2-5-7-----------7-77------------------------------
E--------------------------------------------------------------

VERSE
Em E E D B D E
|-pm--| bend both notes up on D
e--------------------------------------------------------------
B----------9-9--7-4---9----------------------------------------
G----------9-9--7-4-^-9-*4-------------------------------------
D-2222222--9-9--7-4-7-9----------------------------------------
A-2222222--7-7--5-2-5-7----------------------------------------
E-0000000------------------------------------------------------

I like smoke and lightnin'..

G A E
e--------------------------------------------------------------
B---------------------------^---------The last time just play--
G-4-44--666-------------12-14-12------------^bend and release--
D-5-55--777-12/14-12-14----------*4----/12/14------------------
A-5-55--777---------------------------------------------------
E-3-33--555---------------------------------------------------

Yeh darling gonna make it happen...

CHORUS
E G A
e--------------------------------------------------------------
B-77X7X77-77X7X77--1212X12X1212-1212X12X1212-1414X14X1414------
G-77X7X77-77X7X77--1212X12X1212-1212X12X1212-1414X14X1414------
D-77X7X77-77X7X77--1212X12X1212-1212X12X1212-1414X14X1414------
A-99X9X99-99X9X99--1010X10X1010-1010X10X1010-1212X12X1212------
E--------------------------------------------------------------
Like a true nature's child I was born, born to be wild, we could climb so high

G Em
e---------------0----------------------------------------------
B-1212X12X1212--0----------------------------------------------
G-1212X12X1212--0----------------------------------------------
D-1212X12X1212--2----------------------------------------------
A-1010X10X1010--2----------------------------------------------
E---------------0----------------------------------------------
I never wanna die......

The bit during the words does not exist in the song but with only 1 guitar
and no bass it sounds better
E D C#B E D
e--------------------------------------------------------------
B-9-99-7-7-7-------9---7---------------------------------------
G-9-99-7-7-7-------9---7---*2----------------------------------
D-9-99-7-7-7-------9---7---------------------------------------
A-7-77-5-4-5-------7---5---------------------------------------
E--------------------------------------------------------------

Born to be wild...

buseca y vino tinto

A5
Sirvió un menú muy complicado
A5
entre narcisos y playboys
D5 D5
que vomitaba la pantalla Argentina,
E5 D5
aflojando el almidón del cogote
A5 E5
para poder tragar.

Dio la receta rebuscada,
de una torta color caca
para el té poder acompañar,
aflojando el cinturón al chancho
para no reventar.

D5
Y yo me quemo hasta los dientes,
mi manjar está caliente,
A5
se cocinó la realidad.
E5
Vamos todos a la mesa,
D5 A5 E7
que esta noche vamos a cenar

D5
Buseca y vino tinto
A5
buseca y vino tinto
D5
Buseca y vino tinto
A5
buseca y vino tinto
E5 D5
Esta noche, nena
A5 E5
te invito a morfar.

Pidió postre con cereza,
delicada la burguesa,
y anunciaba un lindo comercial,
que donaría las sobras
y los huesos a la prosperidad.

Contrataron a dos chinos
pa'endulzar el apellido,
¡ hay, divina alta sociedad !
que eructaba con la panza
llena de felicidad.

Y yo me quemo hasta...

Buseca...

A5
Buseca y vino tinto x4

D5
Buseca y vino tinto
A5
Buseca y vino tinto
D5
Buseca y vino tinto
A5
Buseca y vino tinto
E5 D5 A5
Esta noche Mirtha, te invito a morfar.


cuandro vendran

INTRO;
GUITARRA: (sin distorcion)
FA#5 LA5 FA#5 LA5
e|--------------------------|-------------------------------|-----------|-----------------------|
B|--------------------------|-------------------------------|-----------|-----------------5-----|
G|--------------------------|--------(2)-2-------------2~-2-|------FA#5-|--------(2)-222--5-(2)-|
D|--------(4)---------------|--------(2)-2--4p2--2--2h4---2-|-----------|--------(2)-222----(2)-|
A|--4p3-0-(4)-4-x-4-4-x--4-4|-4p3-0--(0)-0--0p0--0----------|4p3-0------|-4p3-0--(0)-000----(0)-|
E|--------(2)-2-x-2-2-x--2-2|-------------------------------|-----------|-----------------------|

Y despues
FA#5 LA5 FA#5 LA5
e|--------------------------|------------------------------|------------------------|-----------|
B|--------------------------|------------------------------|------------------------|-----------|
G|--------------------------|--------(2)-2---------------2~|------------------------|-------2--#|
D|--------(4)---------------|--------(2)-2--4p2--2--2h4----|------(4)---------------|-------2---|
A|--4p3-0-(4)-4-x-4-4-x--4-4|-4p3-0--(0)-0--0p0--0---------|4p3-0-(4)-4-x-4-4-x-4-4-|4p3-0--0---|
E|--------(2)-2-x-2-2-x--2-2|------------------------------|------(2)-2-x-2-2-x-2-2-|-----------|

BAJO: FA# LA FA# LA
G|--------|------|-------------|-------------|------------------------|-------------------------|
D|---#----|---#--|-------------|-------------|------------------------|-------------------------|
A|--------|------|-4p3--0------|-4p3--0------|-4p3--0-----------------|-4p3--0------------------|
E|--------|------|---------(2)-|--------/(5)-|-------(2)-2-0-2-2-0-2-2|--------(5)-5-3-5-5-3-5-5|
FA# LA FA# LA
G|------------------------|-------------------------|------------------------|-----------|
D|------------------------|-------------------------|------------------------|-----------|
A|-4p3--0-----------------|-4p3--0------------------|-4p3--0-----------------|-4p3--0----|
E|-------(2)-2-0-2-2-0-2-2|--------(5)-5-3-5-5-3-5-5|-------(2)-2-0-2-2-0-2-2|---------5-|





VERSO 1:

GUITARRA:
RIFF 1 RIFF2
e|------------------| |-----------------------------|
B|------------------| |-----------------------------|
G|-5b---------------| |----------------------#------|
D|----7p5h7-7-7-5-7/| |-----------------------------|
A|----------7-7-5-7/| |--7-7-5--7-7--5----7---------|
E|------------------| |--5-5-3--5-5--3----5---------|

BAJO: (arreglo)
______________________________________________X2_________________________________________
| LA SI SOL RE LA |
G|--------------------|------------------------|-------------|-------------|--------------------|
D|--------------------|------------------------|-------------|-------------|--------------------|
A|--------------------|-2-x-2-2-x-0-22-33-44-55|-------------|-5-x-5-5-x--5|--------------------|
E|-5-x-5-5-x-5-5-5-3-5|------------------------|-3-x-3-3-x--3|-------------|55-3-55-3-55-3-(5)-5|

(arreglo) LA SI SOL RE LA
G|--------------------|------------------------|-------------|-------------|---------------|
D|--------------------|------------------------|-------------|-------------|------------#--|
A|--------------------|-2-x-2-2-x-0-22-33-44-55|-------------|-5-x-5-5-x--5|---------------|
E|-5-x-5-5-x-5-5-5-3-5|------------------------|-3-x-3-3-x--3|-------------|55-3-55-3-5----|

lA5 SI5
Es que la muerte esta tan segura de vencer,
SOL5 RE5 LA5+RIFF1
que nos da toda una vida de ventaja.
LA5 SI5
Tu empresa lider funciona bien en el caos
SOL5 RE5 LA5+RIFF1
inventando analgesicos para poder seguir
LA5
Cuando el mundo no tiene respuesta
SI5
hoy se vuelve incomprensible,
SOL5 RE5 RIFF2
yo sigo aca, insoportablemente vivo.



PUENTE:
GUITARRA :
FA#5 LA5 FA#5 LA5
e|--------------------------|-------------------------------|-----------|-----------------------|
B|--------------------------|-------------------------------|-----------|-----------------5-----|
G|--------------------------|--------(2)-2-------------2~-2-|------FA#5-|--------(2)-222--5-(2)-|
D|--------(4)---------------|--------(2)-2--4p2--2--2h4---2-|-----------|--------(2)-222----(2)-|
A|--4p3-0-(4)-4-x-4-4-x--4-4|-4p3-0--(0)-0--0p0--0----------|4p3-0------|-4p3-0--(0)-000----(0)-|
E|--------(2)-2-x-2-2-x--2-2|-------------------------------|-----------|-----------------------|

BAJO: FA# LA FA# LA
G|-----------------------|-----------------------|----------------------|-----------------------|
D|-----------------------|-----------------------|----------------------|-----------------------|
A|-4p3-0-----------------|-4p3-0-----------------|4p3-0-----------------|4p30-------------------|
E|------(2)-2-0-2-2-0-2-2|------(5)-5-3-5-5-3-5-5|-----(2)-2-0-2-2-0-2-2|----(5)5-3-55-3-55-3-55|


VERSO 2: (igual)

Si del principio hubiera aprendido a ser un animal
hoy tendria un instinto noble a cambio de esta pena
y si la ruta me va dejando sin aliento,
sera que un buscador nunca llegara a destino.
Cuando el mundo no tiene respuesta
o se vuelve incomprensible,
recuerda que un guerrero toma todo como un desafio.


PUENTE 2:
GUITARRA : FA# * LA5
e|----------------------------|---------------------------------|--------|-------|------------|
B|----------------------------|---------------------------------|--------|-------|------------|
G|----------------------------|---------2---5-5p4-----2-2-4-2~2~|--FA#-*-|-------|--engancha--|
D|--------4----------2-2~-4~--|---------2---------2h4-----------|--------|-------|---con------|
A|-4p3-0--4--0-2-3-4----------|-4p3-0---0-----------------------|--------|-4p3-0-|-estribillo-|
E|--------2-------------------|---------------------------------|--------|-------|------------|


BAJO: FA# LA FA#
G|------------------------|-------------------------|------------------------|-----------|
D|------------------------|-------------------------|------------------------|-----------|
A|-4p3--0-----------------|-4p3--0------------------|-4p3--0-----------------|-4p3--0----|
E|-------(2)-2-0-2-2-0-2-2|--------(5)-5-3-5-5-3-5-5|-------(2)-2-0-2-2-0-2-2|--------(0)|

ESTRIBILLO 1:

MI
Cuando vendran los dias de sol
LA
y no tener esa nube en el cielo
MI
cuando vendran las noches de estrellas
LA
y no tener mas mi casa ese techo.
MI
Cuando vendra la cancion primitiva
RE5 Fill RIFF 3
y no tener mas sobre mi corazon, una cabeza.

GUITARRA:
RE5 fill RIFF3
e|-------|----------| |--------------------------|
B|-------|----------| |--------------------------|
G|-(7)---|--5^~~----| |----------------------#---|
D|-(7)---|----------| |--------------------------|
A|-(5)---|----------| |--7-7-5--7-5----7---------|
E|-------|----------| |--5-5-3--5-3----5---------|


BAJO: MI LA RE RIff 3
G|-------------------------|---------------------------|--|-----|-----|---------------------|
D|-------------------------|---------------------------|X2|-MI--|-----|------------------#--|
A|-77-77-77-77-77-77-77-77-|------44-55-66----44-55-66-|--|-----|-(5)-|---------------------|
E|-------------------------|--5-5----------55----------|--|-----|-----|--55-3-5-5--3--5-----|


SOLO DE GUITARRA:

BAJO: FA# LA FA# *
G|------------------------|-------------------------|------------------------|-----------|
D|------------------------|-------------------------|------------------------|-----------|
A|-4p3--0-----------------|-4p3--0------------------|-4p3--0-----------------|-4p3--0----|
E|-------(2)-2-0-2-2-0-2-2|--------(5)-5-3-5-5-3-5-5|-------(2)-2-0-2-2-0-2-2|--------(5)|
LA SI SOL RE LA
G|--------------------|------------------------|-------------|-------------|--------------------|
D|--------------------|------------------------|-------------|-------------|--------------------|
A|--------------------|------------------------|-------------|-5---5-5--5-0|--------------------|
E|-5-x-5-5-x-5-5-5-3-5|-7x-77-x-5-777-5-777-5-7|-3--33-3----3|-------------|55-3-55-3-55-3-(5)-5|

LA SI SOL RE LA
G|--------------------|------------------------|-------------|-------------|---------------|
D|--------------------|------------------------|-------------|-------------|------------#--|
A|--------------------|------------------------|-------------|-5---5-5--5-0|---------------|
E|-5-x-5-5-x-5-5-5-3-5|-7x-77-x-5-777-5-777-5-7|-3--33-3----3|-------------|55-3-55-3-5----|

GUITARRA (solo) FA# LA FA#
e|----------------------|-------------------|----------------------|------------------------|
B|----------------------|------------------5|----------------------|----5-7~-5---5----------|
G|---(5~~~~)----2-(4b)~-|-2-4--2-4--2-(4b~)-|-4b-4b-4b-4b--3p2---2-|/-5--------6---6-5-4-5br|
D|-7--------------------|---4----4----------|------------------4---|------------------------|
A|----------------------|-------------------|----------------------|------------------------|
E|----------------------|-------------------|----------------------|------------------------|
* LA
e|---------------------|-/----------------------------|-----------12--12-12-12---------------|
B|---------------------|-/--------(14b)-14br----------|----11-13b-----13b13b13b-13b----------|
G|-4--2----4-3p2--(5~~)|---121212------------14-12-14-|-12--------------------------14p11-14-|
D|------4--------4-----|------------------------------|--------------------------------------|
A|---------------------|------------------------------|--------------------------------------|
E|---------------------|------------------------------|--------------------------------------|
a.h
e|-------|------------------|(12b)---------------|-------------------------------------------|
B|-------|-----15--17-(17b)-|-----13---13-13-----|-------13-------13--------13--------13--/--|
G|-14~-/-|--15--------------|-------14-------14--|-12/14-14-12/14-14--12/14-14--12/14-14--/--|
D|-------|------------------|--------------------|-------------------------------------------|
A|-------|------------------|--------------------|-------------------------------------------|
E|-------|------------------|--------------------|-------------------------------------------|
con Wah wah (un poco)
e|------------------------------------------------------------|(17br)------------|--------------|
B|----13-15-17-15p13----17-15p13-----17-15p13-----17-15p13----|------17-16-13----|--13-16b-15p13|
G|-14----------------14----------14------------14----------14-|---------------14-|14------------|
D|------------------------------------------------------------|------------------|--------------|
A|------------------------------------------------------------|------------------|--------------|
E|------------------------------------------------------------|------------------|--------------|

e|-----------|------------------------------------|-------------------------------|
B|----13--13-|------------------------------------|--------12-(13b)-dejar-sonar---|
G|-14--------|/14-16-17b-(17b)-17p16-14-16--14----|--11-14------------------------|
D|-----------|--------------------------------16//|-------------------------------|
A|-----------|------------------------------------|-------------------------------|
E|-----------|------------------------------------|-------------------------------|


ESTRIBILLO 2: (igual)

MI
Cuando vendran los dias de sol
LA
y no tener esa nube en el cielo
MI
cuando vendran las noches de estrellas
LA
y no tener mas mi casa ese techo.
MI
Cuando vendra la cancion primitiva
RE5 Fill RIFF 3
y no tener mas sobre mi corazon, una cabeza.


el cielo del desengaño

Intro:
d|---------------------------|
A|---------------------------|
F|---------------------------|
C|-0-2--2-1-0----------------|
G|-------------2-1-0---------|
D|--------------------0------|

(quedan mejores arrepegiados)
Mim Sol La A#
Como esas nubes que ahora ves,
Mim Sol La A#
que van regando de vida los campos,
Mim Sol La A#
así lloraba de vez en vez,
Mim Sol La
la tristeza del desengaño.

[Mim,Sol,La]
Haberse visto en la soledad,
esa que aman los sabios,
hoy se ha nublado para llorar,
todo el cielo que te he confiado.

Como un ciego...Mim Mim
(silencio) Sol La Mim
que apunta al ruido de mi cabeza,
d|---------------------
A|-------3-------------
F|-4s3-4---4-4-4s3-----
C|---------------------
G|---------------------
D|---------------------
Do Sol Mim
como todo, como siempre, como es sin ver...
d|--4s7s4--7b----------
A|---------------------
F|---------------------
C|---------------------
G|---------------------
D|---------------------
Sol La Mim
Hacia el abismo de sed,
Do Sol Mim
que no calma el agua, ni las lágrimas,
C G A
como todo, como siempre, como es sin ver.


SOLO DE GUITARRA

e-----------------------------------------------------------------------
B-------------------------------------------7-8-7-----------------------
G---------------0-----5-4p2-4--2----7--9--9-------9-7--7--7-7-6-6p4-6-6-
D-------2-0-2-4---4-----------------------------------------------------
A-2-1-2-----------------------------------------------------------------
E-----------------------------------------------------------------------


e----------------------5-7---10-7-10s12-12-10-9-10-9-9h10-9-9-8-7-8-7-5-7/mantiene estirada
B-7-7-7h8-7-5-7--8-7-8---------------------------------------------------------------
G------------------------------------------------------------------------------------
D------------------------------------------------------------------------------------
A------------------------------------------------------------------------------------
E------------------------------------------------------------------------------------


e---------------12-12-12p10----12--12-12/-----10-----------------------------------
B---------------------------12-------------12----12-12p10---8-10-12--12-8h10-8-----
G-12-12--12-12--------------------------------------------9--------------------9---
D----------------------------------------------------------------------------------
A----------------------------------------------------------------------------------
E----------------------------------------------------------------------------------


e---------------12p10----12-17/-17-17-17-17/-17/---15-17-15------------------
B-10h12-12------------12------------------------------------15-17--12h13-12--
G----------12s9--------------------------------------------------------------
D----------------------------------------------------------------------------
A----------------------------------------------------------------------------
E----------------------------------------------------------------------------


e-----------10-12-10----------------------------------------------------------------
B--13-12-13----------12h13-12----10-10-12-12-10--12--mantiene-----------------------
G-----------------------------12---------------------------------------------0------
D--------------------------------------------------------------------2-0-2-4---4----
A--------------------------------------------------------------2-1-2----------------
E-----------------------------------------------------------------------------------


e-------------------------------------------------------------------------------------
B----------------------7-8-7-----------------------7-7-7h8p7-5-7-7h8p7-5-7-7h8p7-5--------------------------
G--5-4p2-4/----7--9--9-------9-7--7--7-7-6-6p4-6-6---------------------------------------------------------------------
D-------------------------------------------------------------------------------------
A-------------------------------------------------------------------------------------
E-------------------------------------------------------------------------------------


!_____rápido______!
e!-----------------!-----5-7-5------------------------------------------5-7-12-------
B-8p7p5-8p7p5-8p7p5--5-8-------7h8p7h8-7---7h8-7-5-5/---5---5---------7--------------
G---------------------------------------------------------7-----7p5-7----------------
D------------------------------------------------------------------------------------
A------------------------------------------------------------------------------------
E------------------------------------------------------------------------------------


h: hammeron
p: pulloff
/: estira
s: slide


el juicio del ganzo

ntro:Sol-Mim-Re (x2)
Do-Sol-Do-Re

Sol Mim Re
De tanto andar por la cornisa
Sol Mim Re
tal vez un día pueda caer.
Do
De tanto confiarme
Sol
de mi suerte y mis conquistas,
Do
en la percha de un bar
Re
terminé después.

Sol Mim Re
De no aceptar el oficio de santo,
Sol Mim Re
y por reírme de tu tonta canción de amor,
Do Sol
de no transar ni con el cielo y el infierno,
Do Re
tal vez confisquen mi corazón.

La5 Do5 Re5
Y quién compartirá mi desconsuelo -Riff-
La5 Do5 Re5
y mi destierro de civilización. -Riff-
La5 Do5 Re5
Quizás muera odiándote y entendiéndote a la vez, -Riff-
La5 Do5 Re5
que de tanto que pude haber hecho por vos,
Do RE
entregues mi alma, al mejor postor.


De tanto jugar a la cigarra,
tal vez me sorprende el invierno,
de tanto fiarme de tener
alguien siempre a mano,
sin pan y sin torta, la fiesta termine tal vez.

Y uno recoge lo que siembra, dicen,
y es peligroso el barco sin timón,
pero quien ponga manos en este juicio,
nunca sabrá que satisfecho el ganso murió.

Y quién compartirá mi desconsuelo
y mi destierro de civilización.
Quizás muera odiándote y entendiéndote a la vez,
que de tanto que pude haber hecho por vos,
entregues mi alma, al mejor postor.

Final:Sol-Mim-Re (x2)
Do-Sol-Do-re

Sol-Mim-Re (x2)
Do-Sol-Do-re


el rey de la triste felicidad

Esto se hace limpio

Pre-Intro
e |--------------------------------------------|
B |--------------------------------------------|
G |----7-7-7-7---4-4-4-4---7-7-7-7---4-4-4-4---|
D |----0-0-0-0---0-0-0-0---0-0-0-0---0-0-0-0---| 100 % correcticima
A |----5-5-5-5---2-2-2-2---5-5-5-5---2-2-2-2---|
E |--------------------------------------------|

Esto se hace todo con distorcion

INTRO:
E |---------------------------------------------------------|
B |---------------------------------------------------------|
G |------------10-10---------------------9-10-9-10-9--------|
D |---9-9-9-9--10-10------12----9-9-9-9--9-10-9-10-9--------| X 2
A |---9-9-9-9--8--8-------12----9-9-9-9--7-8--7-8--7--------|
E |---7-7-7-7---------7-9-10----7-7-7-7---------------------|


INTRO x2

Re5 Si5
¿Qué podemos hacer cuando se sienta mal?
Re5 Si5
si está bancando su bronca masticando vidrios
Re5 Si5
¿Quién lo quiere invitar a ver televisión?
Sol5 Re5
¿Quién sacará las astillas de su corazón?
La5 Mi5 Sol5
¿Qué podrán decir? ¿Quién lo va a convencer?

INTRO x2

¿Qué podemos hacer cuando se sienta bien?

si está salvando su sueño anestesiándose

¿Quién lo quiere invitar con un electroshock?

¿Quién lamerá los rasguños de su desesperación?

¿Qué podemos decir? ¿Quién lo va a convencer?

INTRO

Sol5 Do5
Se ha convertido en daga el dolor de este tonto rey,
Sol5 Do5
rey de un reino sin mundo, reino que no tiene ley,
Re5 La5
rey que se desangra pero aún tiene esperanzas,
Do5 Mi5 Sol5
serás feliz siendo triste, rey qué puedo decirte.

SOLO:

Base (Si5 Mi5) x2

_Este solo se hace
todo mobiendo el wha wha.
Rapido !
e|------------------------------------------------------------|
B|----3----Arrastra a----9------------------------------------|
G|--2-----------------8------------8---------8----------10----|
D|--------------------------8--10-----8--10-----8--8--8-------|
A|------------------------------------------------------------|
E|------------------------------------------------------------|

Aca ya no usa mas wha wha.

Sigue Base (Re5 Si5) x4

Ahora solo distorción

e|-----------------------------------|
B|-----12-12-12-12-12--9--10--12-12--|
G|--9--------------------------------|
D|-----------------------------------|Sigue --->>
A|-----------------------------------|
E|-----------------------------------|

e|-------------------------------------------|
B|--10-9--9-9-9--8-8-8--7-6-7--6-7-8--9--12--|
G|-------------------------------------------|
D|-------------------------------------------|Sigue --->>
A|-------------------------------------------|
E|-------------------------------------------|

e|-------------------------------------------------------------|
B|--0-7-0-8-0--10---0-7-0-8-0--10---12--10-8-8-7-7--6--7~-7>11-|
G|-------------------------------------------------------------|
D|-------------------------------------------------------------|Sigue-->>
A|-------------------------------------------------------------|
E|-------------------------------------------------------------|

e|-------------------------------------------------------|
B|--0-7-0-8-0--10---0-7-0-8-0--10---12-12-12--15-15--17b-|
G|-------------------------------------------------------|
D|-------------------------------------------------------|
A|-------------------------------------------------------|
E|-------------------------------------------------------|

Fin del solo.. lo tube que transcribir asi cortado
porque no me lo aceptaba.



RE5 Si5
Nada podemos hacer cuando se sienta mal,
Re5 Si5
nada podemos hacer cuando se sienta bien,
La5 Sol5
es el rey de una maldición que lo hizo rey,
La5 MI5 Sol5
será feliz siendo triste, rey qué puedo decirte.

INTRO x4


el viento qe todo empuja

Intro: Pedalera con efecto wha-wha
Riff

E|---------------------------------------------|
B|--------------7----------------------------7-|
G|--------------7--------------7-------------7-|
D|----9-7-------7-----9-7------7----9-7------7-|
A|-7-9-----10-9-5-7-9-----10-9-5-7-9----10-9-5-|
E|---------------------------------------------|

E|--------------------------------|
B|---------------------------7----|
G|---------------9-9---------7----|
D|----9-7--------9-9-9-9-5-5-7----|
A|-7-9----10-9-7-7-7-9-9-5-5-5-...|
E|-------------------7-7-3-3------|


(...): Continua rasgeando el mismo
acorde hasta el comienzo de la canción
D
Hoy me detuve en tu mirada que raja el velo del dolor
Em
y supe que hay algo más que percibiren este mundo
B G D
que todo lo muele y lo desgarra.
D
Perdido por perdido ya ves da lo mismo vivo o muerto
Em
pero tu alma es otra cosa, tu alma es la que te mueve
B G D
tu alma es mi razón, tu alma es la fuerza.
D
El águila muerte siempre vuelve y afina su aguda vista

hoy cualquiera puede morir sin saber como fue vivir
Em B
yo sólo espero sin dormirme en mis sueños
G D7
estar tan lejos, lejos de esta ignorancia.

Estribillo: Con distorsión

A5 D5 G5 G#5 A5
Sólo eso, sólo eso
A5 C5 D5
despierta en mí el viento que todo empuja
A5 D5 G5 G#5 A5
sólo eso, sólo eso
A5 C5 D5
que más puedo esperar, sólo eso.

En esta parte el Saxo y la Trompeta hacen:
(Transportado para Guitarra)

E|------------10-----------------------10--------7-8-7--------|
B|-7-8-7-8-10-----7-8-7-8----7-8-7-8-10---7-8-10-------8-7----|
G|-7--------------7-------7--7-----------------------------7--|
D|------------------------------------------------------------|
A|------------------------------------------------------------|
E|------------------------------------------------------------|

Vuelve a tocar con wha-wha

D
Y mi mirada puede ver por la rejilla de tus ojos
Em B
para espiar tu corazón que se quedó con un pedazo de mi vida
G D
al tiempo que yo, yo brote de tu sangre

(En esta parte el Chizzo no toca ningun acorde)

Hoy que no hay tiempo que perder
que todo anda a reloj
que se destruye sin razón
D
y la vida muere en un discurso
y alguien se encarga de encerrarte
y otro prepara el fin del mundo
y tan lejana queda la esencia
Em B
que sólo el hecho de encontrarte para mí
G D7
le da sentido, le da sentido a mi vida.

Estribillo X2: con distorción

A5 D5 G5 G#5 A5
Sólo eso, sólo eso
A5 C5 D5
despierta en mí el viento que todo empuja
A5 C5 G5 G#5 A5
sólo eso, sólo eso
A5 C5 D5
que más puedo esperar, sólo eso.

Final:

E|--------------------|
B|--------------7-----|
G|--------------7-----| X4 con Wha-Wha
D|-----9-7------7-----|
A|-7-9-----10-9-5---?-|
E|--------------------|

E|-----------------------------------------------|
B|-----------------------------------------------|
G|-------------------9--------------11-6---------|
D|--------11-9-------9-y-luego-hace-11-6-7----2--|
A|-?-9-11------12-11-7---------------9-4-7----2--|
E|---------------------------------------5----0--|
|_________________|
X4 con distorsión hasta el final

en el baldio

sol5(riff 1)
las garras de un terrible ser
mi5 re5
desplumaban un angel en el cielo
mi5 sol5(riff 1)
desde aqui lo vi caer
mi5 re5
hacia el baldio de los misterios
mi5 sol5(riff 1)
yo corri desesperado
mi5 re5
senti el ardor de una herida abierta
mi5 sol5(riff 1)
esta el angel ahi tirado
mi5 re5
y en sus ojos habló la tristesa

sol5 re5-re#5-mi5 (en el 7 trate,cuerda 5)
no me mires así
mi5 do5
dios me ha hecho para caer
sol5 re-re#5-mi5
y no sientas pena por mi
mi5 do5
talvez vivir cueste el pecado
sol5 re-re#5-mi5
y si todo lo soñado
mi5 do5
lo vive en la realida
sol5 re5 (riff 2)
es el angel que te cuida el que vas caido aca

riff 1:
1---------]
2---------]
3---------]
4---------]
5------0--]
6-3-2-----]

riff 2:
1-----------------------------------------------]
2-----------------------------------------------]
3-----------------------------------------------]
4-----------------------------------------------]
5-----------------7-5-3-2-3-3-2---5h7p5-3-5-----]
6-0-3-5-6-7-mi5----------------5-3---------rem--]

(vuelve a empezar)

las espinas del cardo santo
lo abrazaron en su caida
y entre saumerios de basura
el angel aquel se moría
se hunde un vasio a mis espaldas
y sentí que solo me quedaba
en el baldio de los misterios
con ojos tristes que me hablablan

no me mire así...

al final hace lento el riff 1




Estalla


RIFF:

e|----------------------------------------------|
B|----------------------------------------------|
G|----------------------------------------------|
D|-------2-4-2---4-2-5-4-2-----2-4--------------| x2
A|-0-4-5-------5-----------4-5-----5-0-4-0-2-0--|
E|----------------------------------------------|

e|----------------------------------------------|
B|----------------------------------------------|
G|----------------------2-----------------------|
D|-5-4-2-----------5-4--------------------------|
A|--------5-4-2-0----------5-4-2-0--------------|
E|----------------------------------------------|


A
Estoy buscando algún lugar lejano
B-A
donde patear las cosas de mi mente.
Así un lugar como la noche
como la noche para siempre.
Cuando quedas suspendido y solo
en un frío lugar del espacio.
Estás buscando algún lugar lejano
donde patear las cosas de tu mente.

G D A
Estalla el mundo x4


Rueda la tierra entre tus manos
para ver en sus vertientes.
Así un lugar como la sangre
como la sangre para siempre.
Estoy buscando algún lugar desnudo
donde patear las cosas de mi mente.
Así un lugar como la nada
como la nada para siempre.

(G-D-A)
Estalla el mundo x4

A B-A
Sabes, vengo de muy lejos, quizá de un frío lugar del espacio
y todavía dentro de mi mente, estoy buscando algún lugar lejano.
Estoy buscando algún lugar desnudo, un lugar descerebrado
donde patear las cosas de mi mente, todavía estoy buscando.

G D A
Estalla el mundo x4

Intro

Solo

G D A
Estalla el mundo x4

Ya estás muy lejos, no sabes cuanto
está allá el mundo, está esperando
esperando un lugar lejano, un lugar desnudo.
Ya estás muy muy lejos no sabes cuánto
ya estoy muy lejos, estás llegando.


G A D
Estalla el mundo x7


hey hey my my


Mi5 Mi5 - Mi5 Fa#5 Sol5 La5 - La5 - La5 Sol5 Fa#5 Mi5 -
(Mi5 Mi5 Mi5)x2 Repite

Sol - Re - Mi5 (Mi5 Mi5 Mi5)x2

Mi5 Mi5 - Mi5 Fa#5 Sol5 La5 - La5 - La5 Sol5 Fa#5 Mi5 -
(Mi5 Mi5 Mi5)x2

Sol Re Mi
Hey hey, my my
Sol Re Mi
el rockanroll no morirá jamás,
Sol Re
hay más en el cuadro
Mi
de lo que puedes ver
Sol Re Mi
Hey hey, my my



Fuera del azul y dentro de lo negro,
pagaste por esto, pero te dan aquello,
y una vez que te fuiste, no podrás regresar,
fuera del azul y dentro de lo negro.

Mi5 Mi5 - Mi5 Fa#5 Sol5 La5 - La5 - La5 Sol5 Fa#5 Mi5 -
(Mi5 Mi5 Mi5)x2 Repite

Sol - Re - Mi5 (Mi5 Mi5 Mi5)x2

El rey se ha muerto pero no se ha olvidado,

esa es la historia del pobre rocker,

es mejor consumirse que dormir oxidado,

el rey se ha muerto pero no se ha olvidado.


Hey hey, my my
el rockanroll no morirá jamás,
hay más en el cuadro
de lo que puedes ver.


Hey hey, my my
el rockanroll no morirá jamás,
Hey hey, my my
el rockanroll no morirá jamás.



Solo:
e|------12-----------------------------------------------------------|
B|--15b----15b--15~--12----------------------------------------------|
G|----------------------14-12----------------------12----12-14brp12--|
D|----------------------------14~-12----12-14-14~-----14-------------|
A|-----------------------------------14------------------------------|
E|-------------------------------------------------------------------|

e|---------12-----12-----12-----12-----12-----12-----12--------|
B|------15----15b----15b----15b----15b----15b----15b----15b~---|
G|--14b--------------------------------------------------------|
D|-------------------------------------------------------------|
A|-------------------------------------------------------------|
E|-------------------------------------------------------------|

e|----------15p12h14p12----12-----12-12---|
B|--15b-15b-------------15----15b---------|
G|----------------------------------------|
D|----------------------------------------|
A|----------------------------------------|
E|----------------------------------------|

e|------12-12----------------------------------------------------|
B|--15b----------------------------------------------------------|
G|------------14brp12-14~----16b-16b--16-14-12-14-14b-r14p12-----|
D|------------------------14---------------------------------14--|
A|---------------------------------------------------------------|
E|---------------------------------------------------------------|

e|------------------12------------------------------------|
B|------12h15p12h14----12-15b-15brp12---------------------|
G|--14b-------------------------------14-12-14-14-12------|
D|---------------------------------------------------14---|
A|--------------------------------------------------------|
E|--------------------------------------------------------|

e|---------15-------15----15-------15----------17-15-17b--|
B|--------------------------------------------------------|
G|--s16-16----16-16----16----16-16----16-16s18------------|
D|--------------------------------------------------------|
A|--------------------------------------------------------|
E|--------------------------------------------------------|

e|-15-17brp15-17b-17b-17b-17-17-17-15-17-15-15-------------|
B|---------------------------------------------17brp15-17--|
G|---------------------------------------------------------|
D|---------------------------------------------------------|
A|---------------------------------------------------------|
E|---------------------------------------------------------|

e|------------------------------17b___________________r-17-15------|
B|-------17-15---------------17-------------------------------17~--|
G|-14h16-------16-14~--14s16---------------------------------------|
D|-----------------------------------------------------------------|
A|-----------------------------------------------------------------|
E|-----------------------------------------------------------------|

e|----------------------------15-17b-17b-17-15----15-------15------|
B|-17~-17~-15b-15b-15~--15h17------------------17----17-17----17---|
G|-----------------------------------------------------------------|
D|-----------------------------------------------------------------|
A|-----------------------------------------------------------------|
E|-----------------------------------------------------------------|

e|-15-15-15h17-17b_________________r-17p15---------------------------|
B|-----------------------------------------17--17-----17-----17------|
G|------------------------------------------------19b----19b----19b--|
D|-------------------------------------------------------------------|
A|-------------------------------------------------------------------|
E|-------------------------------------------------------------------|

e|------------------19b-19b-19-17-15-15-17-15-15--------|
B|-17-----17-----17------------------------------17-15--|
G|----19b----19b----------------------------------------|
D|------------------------------------------------------|
A|------------------------------------------------------|
E|------------------------------------------------------|

e|-17b-17-15-17-17br----------------------15-17b-17b-15--|
B|-------------------17~-17~-17-17-17~-17----------------|
G|-------------------------------------------------------|
D|-------------------------------------------------------|
A|-------------------------------------------------------|
E|-------------------------------------------------------|

e|-0---0-0-----0-------0-------0-------0-------0-----------------0---|
B|---0-----3s5---0-3s5---0-3s5---0-3s5---0-3s5---3s5-3-3p2-2-3-5---5-|
G|-------------------------------------------------------------------|
D|-------------------------------------------------------------------|
A|-------------------------------------------------------------------|
E|-------------------------------------------------------------------|

e|-3p0---3p0---3p0---3p0---3p0---5p0---3p0---5p0---3p0---5p0----|
B|-----0-----0-----0-----0-----0-----0-----0-----0-----0-----0--|
G|--------------------------------------------------------------|
D|--------------------------------------------------------------|
A|--------------------------------------------------------------|
E|--------------------------------------------------------------|

e|-3p0---5p0---5p0---7p0---7p0---9p0---9p0---10p0---10p0----|
B|-----0-----0-----0-----0-----0-----0-----0------0------0--|
G|----------------------------------------------------------|
D|----------------------------------------------------------|
A|----------------------------------------------------------|
E|----------------------------------------------------------|


e|-12p0---12p0---12p0---12p0---12p0---12p0---12p0---12p0---12p0---|
B|------0------0------0------0------0------0------0------0------0-|
G|----------------------------------------------------------------|
D|----------------------------------------------------------------|
A|----------------------------------------------------------------|
E|----------------------------------------------------------------|
_________________________
____________|_______________ |
| | esta parte se
e|-12~-12~-12~-12~-12-10h12p10---------------------| toca con chizzo
B|-----------------------------12-10h12p10----10~--| comenzando a
G|-----------------------------------------12------| cantar
D|-------------------------------------------------| "el rey se ha
A|-------------------------------------------------| muerto pero no
E|-------------------------------------------------| se ha olvidado"

h: hammer on o ligado ascendente
p: pull of o ligado descendente
b: bending o estirar la cuerda
r: release o volver la cuerda estirada
b__r: se debe estirar la cuerda, pegar a la cuerda estirada
y luego volverla a su estado normal
~: vibrato

Hielasangre

+-------+
| INTRO |
+-------+

E|-----------------------------2------------------------------------|
B|--------2-----2----------------2-------------------3-2---3-2------|
G|----2-----2-----2--------2-------2------------2--------2-----2----|
D|------2-----2-----2--------2-------2------------2-----------------|
A|-0---------------------0-------------0----------------------------|
E|-------------------------------------------2----------------------|
A F#
Un paso atrás, un paso atrás... no me toques

* Es casi siempre el mismo arpegio, pero cuando canta 'más, más,más', va así:

E|--------------2-------|
B|--------2-------------|
G|--2-------------------|
D|----------------------|
A|----------------------|
E|----------------------|
Más, más, más...

+----------+
| ESTROFAS |
+----------+

A5
Hielasangre en el infierno, hielasangre en el infierno * En los F#, tocá este riff:
F#5 A5 D|-4-4--2---2p4p2----|
No me toques, no me toques A|-4-4----4-------4--|
A5 E|-2-2---------------|x2
Salva el daño que provocas, salva el dueño de tu sombra
F#5 A5 * Los acordes: A5: x022xx
No me toques, no me toques... F#5: 244xxx

+------------+
| ESTRIBILLO |
+------------+

B5 C#5 D5 C#5 * En realidad estos acordes no tienen estos nombres,
Un paso atrás [...] pero no tengo ni la + puta idea de como se llaman,
B5 C#5 D5 E5 son así (de 6º a 1º):
Más, más, más, más... B5: x224xxx
C#5: x446xxx
D5: x557xxx
E5: x779xxx

+--------------+
| SÓLO (VIOLA) |
+--------------+

E|------------0-------------------------------------------------------|
B|------------0-------------12b13--12b13--12b13--12b13--12b13--12b13--|
G|--------------------------14b15--14b15--14b15--14b15--14b15--14b15--|
D|-2------------------------------------------------------------------|
A|-2------------------------------------------------------------------|
E|-0------------------------------------------------------------------|
E

E|--------------------------------15-15-15-15-15-15-15-15-15-15-15-15-|
B|--------------------------------15-15-15-15-15-15-15-15-15-15-15-15-|
G|-2b3-2--2b3-2--2b3-2--2b3-2-----------------------------------------|
D|-0---0--0------0---0--0---0-----------------------------------------|
A|--------------------------------------------------------------------|
E|--------------------------------------------------------------------|


E|--------------------------------------------------------------------|
B|--------------------10-9----------------------------10-9--7-7-7-7-9-|
G|-----8-9-----8-9--8------8------------8-9----8-9--8-----------------|
D|-(7)-----(7)-----------------(7)-(7)-----(7)------------------------|
A|--------------------------------------------------------------------|
E|--------------------------------------------------------------------|
A F#

E|--------------------------------------------------------------------|
B|-10-10-9-7---7-7-7--7-10-7--10/12--10--10~~-------------------------|
G|--------------------------------------------------------8-9-----8-9-|
D|------------------------------------------------(7)-(7)-----(7)-----|
A|--------------------------------------------------------------------|
E|--------------------------------------------------------------------|
A

E|--------------------------------------14-14-------------------------|
B|---10-9------------------------10-9---14-14---17b18--17-14-------17-|
G|-8------8-------8-9-----8-9--8-----------------------------16b17----|
D|------------(7)-----(7)---------------------------------------------|
A|--------------------------------------------------------------------|
E|--------------------------------------------------------------------|
F# A

E|--------------------------------------------------------------------|
B|-------17-------7---------------------------------------------------|
G|-16b17----16b17---16b17~~------2b3-2b3-2b3-2b3-2b3-2b3-2b3-2b3-2b3--|
G|-------------------------------0---0---0---0---0---0---0---0---0----|
D|--------------------------------------------------------------------|
A|--------------------------------------------------------------------|
E|--------------------------------------------------------------------|
B

+-------+
| FINAL |
+-------+

Todo con base en A.

E|-------------------------5-5-----5-5-----5-5-----5-5--------|
B|-5--5-5----5---5---------5-5-----5-5-----5-5-----5-5--------|
G|-5--5-5----5---5-----7b8-----7b8-----7b8-----7b8-----7b8~---|
D|---------7---7----------------------------------------------|
A|------------------------------------------------------------|
E|------------------------------------------------------------|

E|--------------------------------------------------------------------|
B|--------------------------------------------------------------------|
G|----7-5-----7-5-----7-5-----7-5-----7-5----------/8-9----/8-9-------|
D|-7--7-5--7--7-5--7--7-5--7--7-5--7--7-5-----------------------------|
A|--------------------------------------------------------------------|
E|--------------------------------------------------------------------|

E|---------------------| |----------|
B|-10-9----------------| |----------|
G|------8---/8-9~~~----|----------------|----------|
D|---------------------|----------------|-------7--|
A|---------------------|----------------|-------7--|
E|---------------------|-0-5--0-5--0-5--|-0--3--5--|
\--Bajo-&-Bata---/


| | Cifrado americano |
| |
| |C D E F G A B |
| | Do Re Mi Fa Sol La Si |



la nave del olvido


Riff 1 :::
1)------------
2)------------
3)------------
4)--4--2--0---
5)------------
6)------------


Riff 2 :::
1)------------
2)------------
3)------------
4)------------
5)--4--2---0--
6)------------



Sol Re -Riff 1-
Hoy voy a bailar
Sol Re -Riff 1-
a la nave del olvido
Sol Re -Riff 1-
olvido mi gotera
Sol Re -Riff 1-
y mi racion criminal

Do Sol
Perfumes baratos, ambientes picados
Do Re
discos rayados, ya quiero despegar.

Re La -Riff 2-
Hoy voy a bailar
Re La -Riff 2-
a la Nave del Olvido,
Re La -Riff 2-
olvido mis hermanos,
Re La -Riff 2-
y estampitas de estacion.

Sol Re
Veni morocha que vamos a dar
Sol La
una vuelta al chaperio.


Sol Re
La Perito esta desierta y la luna

La Sim Sim-La-Sol-Sol#m-La
que se ha posado sobre los techos...
Re.....Solo
de pompeya.


Hoy voy a bailar,
a la nave del olvido,
olvido a mis hermanos,
y mi racion criminal.

Zapatos embarrados, vuelvo algo mareado
esquivando charcos no logro despertar.

La Perito sigue desierta y el sol
que hizo invisible a la luna de Pompeya.

La Perito sigue desierta y el sol
que se ha posado sobre los techos
de Pompeya.<



esta fue la primer parte espero qe les guste un abrazzo!!!


pipi


la segunda parte aqui:

http://www.taringa.net/posts/musica/1861830/canciones-de-la-renga-para-tocar-2°parte_.html
+2
0
0
0No comments yet