Check the new version here

Popular channels

Para los guitarristas, una increible canción...Wasting Love

Hola amigos hace mucho que no posteaba...por problemas de salud (amigdalitis)
ahora voy a empezar a postear mas seguido...


Aca les traigo esta espectacular cancion de IRON MAIDEN...Wasting Love
es muy buena la cancion, quiza no se siente tanto, pero de escucharla varias veces si que te va a gustar...y mas cunado se hace con la guitarra, ya que tiene un arpegio simple y el estriblillo los acordes son muy sencillos...



El Video

http://www.youtube.com/v/ylfYBeW28U4&hl=en&fs=1&color1=00000000a&color2=00000000&border=1

Acá en Live at Donington 1992...

http://www.youtube.com/v/HYIjf1JfdZ4&hl=en&fs=1&color1=00000000a&color2=00000000&border=1


La letra en español



Amor Perdido

Tal vez algún día sea un hombre honesto
Hasta entonces, lo haré lo mejor que pueda
Largos caminos, largos días, del amanecer, al ocaso
Del amanecer al ocaso

Sigan soñando hermanos, mientras puedan
Sigue soñando hermana, espero que encuentres al elegido
Todas nuestras vidas, cubiertas rápidamente
Por la marea del tiempo

Consume tus días llenos de vacío
Consume tus años de soledad
Amor perdido, en una desesperada caricia
Sombras andantes de noche

Sigan soñando hermanos, mientras puedan
Sigue soñando hermana, espero que encuentres al elegido
Todas nuestras vidas, cubiertas rápidamente
Por la marea del tiempo

La arena fluye y las líneas están en tu mano
En tus ojos veo el hambre
y el llanto desesperado que desgarra la noche




Queres bajar el video?



Solo entra aca



Copia la url del video (http://www.youtube.com/watch?v=ylfYBeW28U4) y pone Descargar video!

despues podes elegir en 3 formatos para bajarla, mp4, flv y 3gp....yo recomiendo mp4




La Tablatura



Introdução

e|-----------------------------------------------------------|
B|---------------------10^----------12-10--------------------|
G|-9~----11h12-----------------11~---------12-11-12-11-9-----|
D|------------10~---------------------------------------12---|
A|-----------------------------------------------------------|
E|-----------------------------------------------------------|
4x
2ª guitarra
e|----------------------------10-----------------------------|
B|----10h12-----------------------13-12-10-12--10------------|
G|-12-------9---13^--10----------------------12--11-12-------|
D|-----------------------------------------------------------|
A|-----------------------------------------------------------|
E|-----------------------------------------------------------|
4x |(Acompanha somente o riff acima.|
|O resto são as duas guitarras ao|
|mesmo tempo) |

e|-----------------------------------------------------------|
B|-------------------------3-------------------------------3-|
G|---------0-----------0-----0---0---------0-----------0-----|
D|-----4-----4---4---4---4-----4-------4-----4---4---4---4---|
A|---2---2-----2---3-----------------2---2-----2---3---------|
E|-0-------------------------------0-------------------------|

e|-----------------------------------------------------------|
B|-------------------------3-------------------------------3-|
G|---------0-----------0-----0---0---------0-----------0-----|
D|-----4-----4---4---4---4-----4-------4-----4---4---4---4---|
A|---2---2-----2---3-----------------2---2-----2---3---------|
E|-0-------------------------------0-------------------------|
|Fim da introdução

e|-----------------------------------------------------------|
B|-------------------------3-------------------------------3-|
G|---------0-----------0-----0---0---------0-----------0-----|
D|-----4-----4---4---4---4-----4-------4-----4---4---4---4---|
A|---2---2-----2---3-----------------2---2-----2---3---------|
E|-0-------------------------------0-------------------------|

Maybe one day I'll be an honest man

e|-----------------------------------------------------------|
B|-------------------------3-------------------------------3-|
G|---------0-----------0-----0---0---------0-----------0-----|
D|-----4-----4---4---4---4-----4-------4-----4---4---4---4---|
A|---2---2-----2---3-----------------2---2-----2---3---------|
E|-0-------------------------------0-------------------------|

Up till now I'm doing the best I can

e|-----------------------------------------------------------|
B|----------------------1---------------3--------------------|
G|------------------0-----0---0-----0-------0----------------|
D|----------------2---2-----2-----4---4---4---4--------------|
A|-------------0---------------0-----------------------------|
E|-----------------------------------------------------------|
2x

Long roads, long days,

e|-----------------------------------------------------------|
B|-------------------------3-------------------------------3-|
G|---------0-----------0-----0---0---------0-----------0-----|
D|-----4-----4---4---4---4-----4-------4-----4---4---4---4---|
A|---2---2-----2---3-----------------2---2-----2---3---------|
E|-0-------------------------------0-------------------------|

of sunrise, to sunset, sunrise to sunset

e|-----------------------------------------------------------|
B|-------------------------3-------------------------------3-|
G|---------0-----------0-----0---0---------0-----------0-----|
D|-----4-----4---4---4---4-----4-------4-----4---4---4---4---|
A|---2---2-----2---3-----------------2---2-----2---3---------|
E|-0-------------------------------0-------------------------|

Dream on brother, while you can

e|-----------------------------------------------------------|
B|-------------------------3-------------------------------3-|
G|---------0-----------0-----0---0---------0-----------0-----|
D|-----4-----4---4---4---4-----4-------4-----4---4---4---4---|
A|---2---2-----2---3-----------------2---2-----2---3---------|
E|-0-------------------------------0-------------------------|

Dream on sister, I hope you find the one

e|-----------------------------------------------------------|
B|----------------------1---------------3--------------------|
G|------------------0-----0---0-----0-----0---0--------------|
D|----------------2---2-----2-----4---4-----4----------------|
A|-------------0---------------0-----------------------------|
E|-----------------------------------------------------------|
2x
All of our lives covered up quickly by

e|-----------------------------------------------------------|
B|-------------------------3-------------------------------3-|
G|---------0-----------0-----0---0---------0-----------0-----|
D|-----4-----4---4---4---4-----4-------4-----4---4---4---4---|
A|---2---2-----2---3-----------------2---2-----2---3---------|
E|-0-------------------------------0-------------------------|

the tides of time

Refrão:

E5 C5 D5 G5 F5
Spend your days full of emptiness

E5 C5 D5 G5 F#5
Spend your years full of loneliness

E5 C5 D5 G5 D5
Wasting love, in a desperate caress

E5 C5 D5 C5
Rolling shadows of nights

Ponte:

e|--------------------0----------------------0---------------|
B|--------------------3----------------------3---------------|
G|------0-------0-----0-------0-------0------0---------------|
D|----4-------2-------2-----4-------2--------2---------------|
A|--5-----3~----------2---5-----3~-----------2---------------|
E|---------------0~--------------------0-0~------------------|

e|--------------------0-----------------|
B|--------------------3-----------------|
G|------0-------0-----0-------0-------0-|

D|----4-------2-------2-----4-------2---|
A|--5-----3~----------2---5-----3~------|
E|---------------0~---------------------|
|Fim da ponte

e|-----------------------------------------------------------|
B|-------------------------3-------------------------------3-|
G|---------0-----------0-----0---0---------0-----------0-----|
D|-----4-----4---4---4---4-----4-------4-----4---4---4---4---|
A|---2---2-----2---3-----------------2---2-----2---3---------|
E|-0-------------------------------0-------------------------|

Dream on brother, while you can

e|-----------------------------------------------------------|
B|-------------------------3-------------------------------3-|
G|---------0-----------0-----0---0---------0-----------0-----|
D|-----4-----4---4---4---4-----4-------4-----4---4---4---4---|
A|---2---2-----2---3-----------------2---2-----2---3---------|
E|-0-------------------------------0-------------------------|

Dream on sister, I hope you find the one

e|-----------------------------------------------------------|
B|----------------------1---------------3--------------------|
G|------------------0-----0---0-----0-------0----------------|
D|----------------2---2-----2-----4---4---4---4--------------|
A|-------------0---------------0-----------------------------|
E|-----------------------------------------------------------|
2x
All of our lives covered up quickly by

e|-----------------------------------------------------------|
B|-------------------------3-------------------------------3-|
G|---------0-----------0-----0---0---------0-----------0-----|
D|-----4-----4---4---4---4-----4-------4-----4---4---4---4---|
A|---2---2-----2---3-----------------2---2-----2---3---------|
E|-0-------------------------------0-------------------------|

the tides of time

e|-----------------------------------------------------------|
B|----------------------1---------------3--------------------|
G|------------------0-----0---0-----0-------0----------------|
D|----------------2---2-----2-----4---4---4---4--------------|
A|-------------0---------------0-----------------------------|
E|-----------------------------------------------------------|
2x

Sands are flowing and the lines are in your hand

e|-----------------------------------------------------------|
B|-------------------------3-------------------------------3-|
G|---------0-----------0-----0---0---------0-----------0-----|
D|-----4-----4---4---4---4-----4-------4-----4---4---4---4---|
A|---2---2-----2---3-----------------2---2-----2---3---------|
E|-0-------------------------------0-------------------------|

In your eyes I see the hunger, and the desperate cry that tears the night

Refrão:

E5 C5 D5 G5 F5
Spend your days full of emptiness

E5 C5 D5 G5 F#5
Spend your years full of loneliness

E5 C5 D5 G5 D5
Wasting love, in a desperate caress

E5 C5 D5 C5
Rolling shadows of nights

Ponte 2:
(Eu coloquei tudo como uma ponte até a hora do solo)

e|--------------------0----------------------0---------------|
B|--------------------3----------------------3---------------|
G|------0-------0-----0-------0-------0------0---------------|
D|----4-------2-------2-----4-------2--------2---------------|
A|--5-----3~----------2---5-----3~-----------2---------------|
E|---------------0~--------------------0-0~------------------|

e|--------------------0-----------------|
B|--------------------3-----------------|
G|------0-------0-----0-------0-------0-|
D|----4-------2-------2-----4-------2---|
A|--5-----3~----------2---5-----3~------|
E|---------------0~---------------------|

e|-----------------------------------------------------------|
B|---------------------10^----------12-10--------------------|
G|-9~----11h12-----------------11~---------12-11-12-11-9-----|
D|------------10~---------------------------------------12---|
A|-----------------------------------------------------------|
E|-----------------------------------------------------------|
>>>3x<<<

e|-----------------------------------------------------------|
B|---------------------10^-----------------------------------|
G|-9~----11h12-----------------11~--------5-5---7-7----------|
D|------------10~-------------------------5-5---7-7----------|
A|----------------------------------------3-3---5-5----------|
E|-----------------------------------------------------------|

e|----------------------------------------|
B|--------------------------------3-------|
G|---------0------------------0-----------|
D|-----4-----4--------------4---4---------| Faça isso 4 vezes.
A|---2---2-----2-3------------------------|
E|-0--------------------------------------|
Pm|.-.-.-.-.-.-.-.----------.-.-.-.-------|

|Fim da ponte
Solo:

e|-8---------------|----|---------|---15----14----12----12~-----------|
B|---11-8rb~-------|----|---------|-12----12----12----12-----15-14-12-|
G|-------------9-7~|----|---------|-----------------------------------|
D|-----------------|10-9|--7----7~|-----------------------------------|
A|-----------------|----|----11---|-----------------------------------|
E|-----------------|----|---------|-----------------------------------|
3x/

e|----12----14----15----14----15----17----19~~-|---19-17-15-14-15~~---|
B|-12----12----12----12----12----12----12------|----------------------|
G|---------------------------------------------|----------------------|
D|---------------------------------------------|----------------------|
A|---------------------------------------------|----------------------|
E|---------------------------------------------|----------------------|


e|-19-17-15-14--------|-------19-17-15-14-15-14-----------------------|
B|-------------15~~---|-------------------------17-15-17-15~~---------|
G|--------------------|-----------------------------------------------|
D|--------------------|-----------------------------------------------|
A|--------------------|-----------------------------------------------|
E|--------------------|-----------------------------------------------|


e|----15-14-12----12--------------------|----12---14--15--17-17/19~17~|
B|-12----------15----15--13-12-13-12----|-12----12--12--12------------|
G|-----------------------------------14~|-----------------------------|
D|--------------------------------------|-----------------------------|
A|--------------------------------------|-----------------------------|
E|--------------------------------------|-----------------------------|


Refrão:

E5 C5 D5 G5 F5 :
Spend your days full of emptiness :
:
E5 C5 D5 G5 F#5 :
Spend your years full of loneliness : Repete uma vez.
:
E5 C5 D5 G5 D5 : Na segunda vez
Wasting love, in a desperate caress : é acompanhado
: pelo solo final.
E5 C5 D5 C5 :
Rolling shadows of nights :

Solo final:

e|----17b--—17b---17b---17b---17brb--17-15------------15--------------|
B|-----------------------------------------17--15b-----15brb-15-------|
G|--------------------------------------------------------------------|
D|--------------------------------------------------------------------|
A|--------------------------------------------------------------------|
E|--------------------------------------------------------------------|

e|--------------------------------------------------------------------|
B|--------------------------------------------------------------------|
G|----14brb--16-12----12b----12-14b--14p12----14----12-11-9--7--------|
D|-----------------14-----14---------------14----14-------------------|
A|--------------------------------------------------------------------|
E|--------------------------------------------------------------------|


Ponte final:

e|--------------------0~-|
B|--------------------3~-|
G|------0-------0-----0~-|
D|----4-------4-------4~-|
A|--5-----3~----------2~-|
E|---------------0~------|


Disculpen que esta en portugues....





Los acordes estan aca...


http://www.losacordes.com/acordes/iron-maiden/wasting-love



Bueno amigos espero que les haya gustado!

Nos vemos! Comenten he!
0
0
0
0
0No comments yet