Check the new version here

Popular channels

Punteos Faciles Para Guitarra Acustica

Nombre: Mil horas - Los abuelos de la nada

1)--------------------------------------------------------------------------
2)--------------------------------------------------------------------------
3)--------------------------------------------------------------------------
4)--------------------------------------------------------------------------
5)--------------------------------------------- 0 0 ----------------------
6)------ 0 2 3 3 2 0 - 0 2 3 3 2 - 2 3 .... 3 - 0 2 3 3 0----




sastifaction-los rolings stones
1)--------------------------------------------------------------------------
2)--------------------------------------------------------------------------
3)--------------------------------------------------------------------------
4)--------------------------------------------------------------------------
5)----------2--2---2-4-5---5-5-5--4-4-4-------------------------------
6)-------------------------------------------------------------------------

El Padrino
1)------0----3--2--0--3--0--2--0-------------------0--3--2--0--3--0--2--0---------------
2)--0--------------------------------1--3--0------0----------------------------0------------
3)---------------------------------------------------------------------------------------3--2
4)--------------------------------------------------------------------------------------------
5)--------------------------------------------------------------------------------------------
6)--------------------------------------------------------------------------------------------


Naruto - Sadness and sorrow

E|--2-0-----------0--3-5--0-------3---2---
B|-------0-------------------------------------
G|---------------------------------------------
D|---------------------------------------------
A|---------------------------------------------
E|---------------------------------------------

E|--3--5--------7--5------------------------
B|---------3----------------------------------
G|---------------------------------------------
D|---------------------------------------------
A|---------------------------------------------
E|---------------------------------------------


Espero que les haiga gustado no olviden dejar sus puntos
0
0
0
0
0No comments yet