Check the new version here

Popular channels

¿Queres puntear como un campeón en la guitarra? - Entra


link: https://k30.kn3.net/taringa/5/B/A/7/9/E/undergroundpy/255.gif





Johnny B. Good, Chuck Berry

Chuck Berry
Johnny B. Goode
Guitarra: Principal39.132 reproducciones
Tono: A#
Intro:

E|----------5/6-6-6--5/6-6-6--5/6-6-6-----------------|
B|-----6-8--5/6-6-6--5/6-6-6--5/6-6-6---9-8-6---------|
G|-6/7----------------------------------------6-7-----|
D|------------------------------------------------8-8-|
A|----------------------------------------------------|
E|----------------------------------------------------|


E|----------------------------------------------------|
B|-------------------------6-8-6----------------------|
G|--------------------5/7--7-7-7--75-3---------------|
D|-8-8-8--8-8-8--8-8--------------------5-x-----------|
A|-8-8-8--8-8-8--8-8----------------------------------|
E|----------------------------------------------------|


E|----------------------------------------------------|
B|------6------6------6------6------6-----------------|
G|-9b10---9b10---9b10---9b10---9b10-------------------|
D|----------------------------------------------------|
A|----------------------------------------------------|
E|----------------------------------------------------|


E|--------6--------8-6--------------------------------|
B|----------9-8-6------9-8-6---6----------------------|
G|-9b10----------------------8-6h7--------------------|
D|----------------------------------------------------|
A|----------------------------------------------------|
E|----------------------------------------------------|


E|-----6----------------------------------------------|
B|---6----9-8-6--------6------6----6------------------|
G|-7--------------9b10---9b10----8-6h7----------------|
D|-------------------------------------8--------------|
A|----------------------------------------------------|
E|----------------------------------------------------|



Primeira Parte:

Bb5
E|------------------------------------------|
B|------------------------------------------|
G|------------------------------------------| (4x)
D|------------------------------------------|
A|-8--8--10-8------8--8--10-8---------------|
E|-6--6--6--6------6--6--6--6---------------|


Eb5
E|------------------------------------------|
B|------------------------------------------|
G|------------------------------------------| (2x)
D|-8--8--10-8------8--8--10-8---------------|
A|-6--6--6--6------6--6--6--6---------------|
E|------------------------------------------|


Bb5
E|------------------------------------------|
B|------------------------------------------|
G|------------------------------------------| (2x)
D|------------------------------------------|
A|-8--8--10-8------8--8--10-8---------------|
E|-6--6--6--6------6--6--6--6---------------|


F5
E|------------------------------------------|
B|------------------------------------------|
G|------------------------------------------| (2x)
D|-10-10-12-10-----10-10-12-10--------------|
A|-8--8--8--8------8--8--8--8---------------|
E|------------------------------------------|


Bb5
E|------------------------------------------|
B|------------------------------------------|
G|------------------------------------------| (2x)
D|------------------------------------------|
A|-8--8--10-8------8--8--10-8---------------|
E|-6--6--6--6------6--6--6--6---------------|


Bb5
Deep down in Louisiana close to New Orleans
Way back up in the woods among the evergreens
Eb5
There stood a log cabin made of earth and wood
Bb5
Where lived a country boy named Johnny B. Goode
F5
Who never ever learned to read or write so well
Bb5
But he could play a guitar just like a-ringin' a bell

Refrão:

Bb5
E|------------------------------------------|
B|----7/9--9--9--9---11--------------------|
G|----8/10-10-10-10--10--------------------|
D|------------------------------------------|
A|-8----------------------8-----------------|
E|-6----------------------6-----------------|


Bb5
E|------------------------------------------|
B|------------------------------------------|
G|------------------------------------------|
D|------------------------------------------|
A|-8--8--10-8------8--8--10-8---------------|
E|-6—-6—-6--6------6--6--6--6---------------|


Eb5
E|------------------------------------------|
B|----7/9--9--9--9---11--------------------|
G|----8/10-10-10-10--10--------------------|
D|-8----------------------8-----------------|
A|-6----------------------6-----------------|
E|------------------------------------------|


Eb5
E|------------------------------------------|
B|------------------------------------------|
G|------------------------------------------|
D|-8--8--10-8------8--8--10-8---------------|
A|-6--6--6--6------6--6--6--6---------------|
E|------------------------------------------|


F5
E|------------------------------------------|
B|----7/9--9--9--9---11--------------------|
G|----8/10-10-10-10--10--------------------|
D|-10---------------------------------------|
A|-8----------------------------------------|
E|------------------------------------------|


F5
E|------------------------------------------|
B|-8----------------------------------------|
G|-8----------------------------------------|
D|----10-12-10-----10-10-12-10--------------|
A|----8--8--8------8--8--8--8---------------|
E|------------------------------------------|


Bb5
E|------------------------------------------|
B|------------------------------------------|
G|------------------------------------------|
D|------------------------------------------|
A|-8--8--10-8------8--8--10-8---------------|
E|-6—-6—-6--6------6--6--6--6---------------|


Bb5
E|------------------------------------------|
B|------------------------------------------|
G|------------------------------------------|
D|------------------------------------------|
A|-8--8--10-8------8--8--10-8---------------|
E|-6—-6—-6--6------6--6--6--6---------------|



Bb5
Go, go, go Johnny go
Eb5
Go, go Johnny go
Bb5
Go, go Johnny go
F5
Go, go Johnny go
Bb5
Go Johnny B. Goode

Segunda Parte:
Bb5
He used to carry his guitar in a gunny sack
Go sit beneath the tree by the railroad track
Eb5
Oh! The engineers would see him sittin' in the shade
Bb5
Strummin' with the rhythm that the drivers made
F5
People passing by they would stop and say
Bb5
Oh, my but that little country boy can play

Segundo Refrão:

Bb5
E|------------------------------------------|
B|---------6-6------6-----------------------|
G|----9b10-----9b10---9b10------------------|
D|------------------------------------------|
A|-8------------------------8---------------|
E|-6------------------------6---------------|


Bb5
E|------------------------------------------|
B|------------------------------------------|
G|------------------------------------------|
D|------------------------------------------|
A|-8--8--10-8------8--8--10-8---------------|
E|-6—-6—-6--6------6--6--6--6---------------|


Eb5
E|------------------------------------------|
B|---------6-6------6-----------------------|
G|----9b10-----9b10---9b10------------------|
D|-8------------------------8---------------|
A|-6------------------------6---------------|
E|------------------------------------------|


Eb5
E|------------------------------------------|
B|------------------------------------------|
G|------------------------------------------|
D|-8--8--10-8------8--8--10-8---------------|
A|-6--6--6--6------6--6--6--6---------------|
E|------------------------------------------|


F5
E|------------------------------------------|
B|---------6-6------6------6------6---------|
G|----9b10-----9b10---9b10---9b10-----------|
D|-10---------------------------------------|
A|-8----------------------------------------|
E|------------------------------------------|


F5
E|------------------------------------------|
B|------------------------------------------|
G|-9b10-------------------------------------|
D|-------10-12-10-----10-10-12-10-----------|
A|-------8--8--8------8--8--8--8------------|
E|------------------------------------------|


Bb5
E|------------------------------------------|
B|------------------------------------------|
G|------------------------------------------|
D|------------------------------------------|
A|-8--8--10-8------8--8--10-8---------------|
E|-6—-6—-6--6------6--6--6--6---------------|


Bb5
E|------------------------------------------|
B|------------------------------------------|
G|------------------------------------------|
D|------------------------------------------|
A|-8--8--10-8------8--8--10-8---------------|
E|-6—-6—-6--6------6--6--6--6---------------|



Bb5
Go, go, go Johnny go
Eb5
Go, go Johnny go
Bb5
Go, go Johnny go
F5
Go, go Johnny go
Bb5
Go Johnny B. Goode
Solo:

(Variação 1)

E|-----6-----5/6-6-6-6-6--6---------------------------|
B|-----6-----5/6-6-6-6-6--8-6-------------------------|
G|-6/7---7------------------6h7-7---------------------|
D|------------------------------8---------------------|
A|----------------------------------------------------|
E|----------------------------------------------------|


E|-5/6-6-6-6-6--6--------6-6--------6-6--------6-6-6-6|
B|-5/6-6-6-6-6--8-6------6-8-6------6-8-6------6-6-6-6|
G|----------------6h7-7------6h7-7------6h7-7---------|
D|--------------------8----------8----------8---------|
A|----------------------------------------------------|
E|----------------------------------------------------|


E|------6----8-6--------------------------------------|
B|--------9------9-8-6----6---------------------------|
G|-9b10----------------8--6h7-------------------------|
D|----------------------------------------------------|
A|----------------------------------------------------|
E|----------------------------------------------------|


E|-----6--6-6-6--------6-6-6-6-6--------6-------------|
B|---6----6-----8-6----6---------8-6----6-8-6---------|
G|-7------7---------7--7-------------7--7-----7-------|
D|----------------------------------------------------|
A|----------------------------------------------------|
E|----------------------------------------------------|


E|-6-6-6-6-6--6---------------------------------------|
B|-6-6-6-6-6--8-6------8b-9-8b-9-8b-9--8b-9r8--8-6----|
G|-7------------6h7-7--8b10-8b10-8b10--8b10r8--8-6h7-7|
D|------------------8--------------------------------
A|----------------------------------------------------|
E|----------------------------------------------------|


(Variação 2)

E|-5/6-6-6-6-6--6---------6-6-6-6-6--6----------------|
B|-5/6-6-6-6-6--8-6-------6-6-6-6-6--8-6--------------|
G|----------------6h7-7----------------6h7-7----------|
D|--------------------8--------------------8----------|
A|----------------------------------------------------|
E|----------------------------------------------------|


E|-6-6--------6-6-------------------------------------|
B|-6-8-6------6-8-6-------8b-9-8b-9-8b-9--------------|
G|-----6h7-7------6h7-7---8b10-8b10-8b10--------------|
D|---------8----------8-------------------------------|
A|----------------------------------------------------|
E|----------------------------------------------------|


E|------6-------6-------6-------6-------6-------------|
B|-9b10-6--9b10-6--9b10-6--9b10-6--9b10-6-------------|
G|-9b10----9b10----9b10----9b10----9b10---------------|
D|----------------------------------------------------|
A|----------------------------------------------------|
E|----------------------------------------------------|


E|------6-------6-------6-------6---------------------|
B|-9b10-6--9b10-6--9b10-6--9b10-6---------------------|
G|-9b10----9b10----9b10----9b10-----------------------|
D|----------------------------------------------------|
A|----------------------------------------------------|
E|----------------------------------------------------|


E|-6-6-6--9b10--6-8-6---------------------------------|
B|-6-6-6--9b11--6-8-6-9-8-6---9b10-6--9b10-6--9b10-6--|
G|--------------------9-8-6---9b10----9b10----9b10----|
D|----------------------------------------------------|
A|----------------------------------------------------|
E|----------------------------------------------------|


E|-----------6-x--6-6---------------------------------|
B|-8-6-------6-x--6-6--8--6---------------------------|
G|-8-6h7-7-------------8--6h7-7-----------------------|
D|-------8--------------------8-----------------------|
A|----------------------------------------------------|
E|----------------------------------------------------|



Terceira Parte:

Bb5
His mama told him some day you will be a man
And you will be the leader of a big old band
Eb5
Many people comin' from miles around
Bb5
To hear you play your music 'till the sun go down
F5
Maybe someday your name will be in lights
Bb5
Sayin' Johnny B. Goode tonight

Refrão Final:

Bb5
E|------------------------------------------|
B|--------------------7/9--9--9--9---11--9--|
G|--------------------8/10-10-10-10--10--10-|
D|------------------------------------------|
A|-8--8--10-8------8------------------------|
E|-6—-6—-6--6------6------------------------|


Bb5
E|------------------------------------------|
B|------------------------------------------|
G|------------------------------------------|
D|------------------------------------------|
A|---8------8--8--10-8----------------------|
E|---6------6--6--6--6----------------------|


Eb5
E|------------------------------------------|
B|--------------------7/9--9--9--9---11--9--|
G|--------------------8/10-10-10-10--10--10-|
D|-8--8--10-8------8------------------------|
A|-6--6--60-6------6------------------------|
E|------------------------------------------|


Eb5
E|------------------------------------------|
B|------------------------------------------|
G|------------------------------------------|
D|---8------8--8--10-8----------------------|
A|---6------6--6--6--6----------------------|
E|------------------------------------------|


Bb5
E|------------------------------------------|
B|--------------------7/9--9--9--9---11--9--|
G|--------------------8/10-10-10-10--10--10-|
D|------------------------------------------|
A|-8--8--10-8------8------------------------|
E|-6—-6—-6--6------6------------------------|


E|------------------------------------------|
B|--7/9--6--7/9----9--9--11-----------------|
G|--8/10----8/10---10-10-10-----------------|
D|------------------------------------------|
A|------------------------------------------|
E|------------------------------------------|


Bb5
E|------------------------------------------|
B|------------------------------------------|
G|-3-3-0----3-3-0----3-x-x--3---------------|
D|-3-3---3--3-3---3--3-x-x--3---------------|
A|--------------------------1---------------|
E|------------------------------------------|



Bb5
Go, go, go Johnny go
Eb5
Go, go Johnny go
Bb5
Go, go Johnny go

Go, go Johnny go
Bb5
Go Johnny B. Goode



Aunque no paresca es muy sencillo te dejo un vídeo demostrativo


link: https://www.youtube.com/watch?v=gNH7XIAUYUw
0
0
0
1
0No comments yet