Check the new version here

Popular channels

Riffs de guitarra** (Tablaturas) :D :D :D

ANTES QUE TODO , SI QUIEREN UN TEMA DEJEN EL NOMBRE Y EL GRUPO EN LOS COMENTARIOS!

Bueno empezamos:

Sweet Child of mine - Guns and roses

1--------------15----14--------------------15----14-----------|
2-----15--------------------------15----------------------------|
3-------14-12----14----14------------14-12----14----14--|
4--12--------------------------14-------------------------------|
5-----------------------------------------------------------------|
6-----------------------------------------------------------------|


1--------------15----14--------------------15----14------------|
2-----15--------------------------15-----------------------------|
3-12----14-12----14----14-----------14-12----14----14---|
4-------------------------------12--------------------------------|
5------------------------------------------------------------------|
6------------------------------------------------------------------|



Smells like teen spirit - Nirvana

F5 Bb5 G#5 C#5
3|---------------------3-3-3--------------------------6-6-6-6-|
4|-3-3-3--x-x-x-----3-3-3----6-6-6-----x-x-x----6-6-6-6-|
5|-3-3-3--x-x-x-----1-1-1----6-6-6-----x-x-x----4-4-4-4-| Rasgueo : ⇩⇧⇩ (muteo ''x'' ⇧⇩⇧⇩)
6|-1-1-1--x-x-x----------------4-4-4-----x-x-x--------------|


Gotten - Slash

1|-----------------------------------------------|
2|-----5---4/5---7-5---4/5--4----------------|
3|-------4-----4-----4---------4---------------|
4|-----------------------------------------------|
5|--4--------------------------------------------|
6|-----------------------------------------------|

1|-----------------------------------------------|
2|-----5---4/5---7-5---4/5--4----------------|
3|-------4-----4-----4---------4---------------|
4|------------------------------------------------|
5|--0--------------------------------------------|
6|-----------------------------------------------|


AcϟDc

e|-----3-3-3---------3t0-----------------3-3-3-------------------------------|
B|-----2-2-2-2-2-2----3t0--------------2-2-2-2-2-2----------------------|
G|1---3-3-3-2-2-2--------3t0------1---3-3-3-2-2-2----------------------|
D|2---0-0-0-2-2-2------------------2---0-0-0-2-2-2----------------------|
A|2-----------0-0-0------------------2-----------0-0-0-2---2---2---2---------|
E|0-----------------------------------------------------------3---4-- 5---7-------|


Wondrewall - Oasis

INTRO/ACORDES QUE USA EN CASI TODA LA CANCIÓN:
e|3--3-3--3-3-3-3-3-3-3--3-3-3-3-3-3-3-3-3-3-3-3-3-3-
B|3--3-3--3-3-3-3-3-3-3--3-3-3-3-3-3-3-3-3-3-3-3-3-3-
G|0--0-0--0-0-0-0-0-0-0--2-2-2-2-2-2-2-2-2-2-2-2-2-2-
D|2--2-2--0-0-0-0-0-0-0--0-0-0-0-0-0-0-2-2-2-2-2-2-2-
A|2--2-2--2-2-2-2-2-2-2--0-0-0-0-0-0-0-0-0-0-0-0-0-0-
E|0--0-0--3-3-3-3-3-3-3--x-x-x-x-x-x-x-x-x-x-x-x-x-x-
E G D A


American idiot - green day

e|----------------------------------|
B|----------------------------------|
G|------6---------6-----------------|
D|-6----6----4----6---6---4---------|
A|-6----4----4----4---6---4---------|
E|-4---------2--------4---2---------|

G#5 C#5 F#5 C#5 G#5
e|------------------------0---------|
B|------------------------0---------|
G|------6---------6-------0---------|
D|-6----6----4----6---6-------------|
A|-6----4----4----4---6-------------|
E|-4---------2--------4-------------|



Espero que les sirva , recuerden dejar un comentario con la cancion que quieren (Riffs, solos , etc.. )
0
0
0
1
0No comments yet