Check the new version here

Popular channels

Tablaturas de varias canciones (bajo electrico)

Hola amigos deT!
Como ya saben a mi me gusta el bajo y tengo una compilacion de canciones que me parecen faciles o buenas para enseñarse a tocar o tomaralgo de experiencia y bueno es todo aqui estan las tablaturas con el nombre de la cancion
NOTA: Si en alguna cancion aparece un ~ es vibrato, para hacerlas al aire soilo toca la parte donde stan las clavijas (lo aprietas)

Una de las mas faciles que fue la primera que me aprendi es
Feel Good Inc - Gorillaz
No encontre nunca las tablaturas bien y yo con el oido cheque a ver como era. Son asi:

G------------------------------------------------------
D------------------------------------------------------
A-----------3-2-00--------------3-2-00---------------
E-0--0-2-3------------0--0-2-3-----------------------
Asi es toda la cancion. Para los que no sepan que es el 0 es que no se toca ningun traste la nota se toca ''al aire'' si gustas a esta cancion le puedes añadir algun otro tono o algo

Bueno aqui van otras
A little piece of heaven by Avenged Sevenfold


Tuning: drop D (DADG)


Intro:
G---------------------------------------|
D---------------------------------------|x2
A---------------------------------------|
D-000000000000000000-333333333333333333-|

Pre-verse:
G-------------------------------------|
D-------------------------------------|x2
A----------44-44-44-------------------|
D-00-00-00----------33-33-33-66-66-66-|

Verse:
G-------------------------------------------------| --------------------------------|
D-------------------------------------------------|x2 --------------------------------|
A-------------4---4---4---------------------------| -----------3-2-------------3-5--|
D-0-3-0-3-0-3---7---7---7-6-9-6-9-6-9-0-3-0-3-2-1-| -02357-356-------02357-356------|

''Must've stubbed...''
G------------------------------------------------------------------------------------|
D--------------------------------------------------------------5875-----------5875---|
A-5---4---------------5---4----------------------------5-05-057----87-4-04-047----87-|
D---------3-6-3-6-3-6---------3-6-3-6-3-6-6-9-6-9-6-9--------------------------------|

Pre-chorus:
G----------------------|
D----------------------|x2
A----------------------|
D-0-2--8-7--5-7-3-5-2--|

-----------------------------------------------------------------------------------|
---3-0--------7--------------------------------------------------------------------|
-1~----3~--8~--8-55555-11111-33333-88888-55555-11111-33333-44444-55555-33333-1~-3~-|
-----------------------------------------------------------------------------------|

Chorus
G----------------------------------------------------------------------------------|
D-----------------------------------------------------------------------------87---|
A-11111111-33333333-888810777h887-55555-333333-111111111-3333333557-8888107777-----|
D----------------------------------------------------------------------------------|

------------------------------|
------------------------------|
55555-33333-11111111-33333333-|
------------------------------|

Verse

''Must've stubbed...''

Pre-chorus

Chorus

Bridge
G-----------------| ------------------------------------------|
D-----------------|x2 ------------------------------------------|x2
A-------4---------| -555555578-11111111----------333333334444-|
D-0-3-2---3-6-5-2-| --------------------55555555--------------|

No bass from 5:50 to 5:58

G---------------------------------------| ------------------|
D---------------------------------------|x2 ------------------|
A---------------------------------------| ------------------|
D-000000000000000000-333333333333333333-| -6666666666666666-|

GORILLAZ - Clint eastwood

G———————————————————
D———————————————————
A—————5—5—5—5———————
E———————————————————

G| ——————————————————————————————
D| ——————————————————————————————
A| —————7—7———7—————————7—7——————
E| ——0~————7~———————0~—————8~—7——

G| ——————————————————————————————
D| ——————————————————————————————
A| —————7—7———7—————————7—7——————
E| ——0~————7~———————0~—————8~—7——

G| ——————————————————————————————
D| ——————————————————————————————
A| —————7—7———7—————————7—7——————
E| ——0~————7~———————0~—————8~—7——

MINDLESS SELF INDULGENCE - Stupid MF
INTRO:

The bass doesnt play here.

VERSE:

G +———————————————————————————————————————————————————————————————————————+
D |———————————————————————————————————————————————————————————————————————+
A |—————————3333—————————————3333—————————————3333—————————————3333———————+
E +—44444444————1111—44444444————1111—44444444————1111—44444444————1111———+

PRECHORUS 1:

G +————————————————————+
D |————————————————————+
A |4———————————————0———+
E +————6—————0————0————+

PRECHORUS 2:

G +————————————————————————————————————————————————————————————————+
D |————————————————————————————————————————————————————————————————+
A |—2—2———2—2—5—5————————2—2———2—2—5—5———————2—2———2—2—5—5—————————+
E +—————————————————5—5——————————————————5—5—————————————————5—5———+

+———————————————————————+
|———————————————————————+
|—2—2———2—2—5—5—————————+
+—————————————————5—5———+

PRECHORUS 3:

G +—————————————————————————————————————————————+
D |—————————————————————————————————————————————+
A |—0———1———2———5—5—5—5———0———1———2———5—5—5—5———+
E +—————————————————————————————————————————————+

CHORUS:

G +———————————————————————————————————————————————————————————————————+
D |———————————————————————————————————————————————————————————————————+
A |———————————————————————————————————————————————————————————————————+
E +—6—6—6—6—6—6—6—6—4—4—4—4—4—4—4—4—3———————————————3—3—3—3—3—3—3—3———+

+—————————————————————————————————————————————————————+
|—————————————————————————————————————————————————————+
|—————————————————————————————————————————————————————+
+—6—6—6—6—6—6—6—6—4—4—4—4—4—4—4—4—3———————————————————+

VERSE:

G +———————————————————————————————————————————————————————————————————————+
D |———————————————————————————————————————————————————————————————————————+
A |—————————3333—————————————3333—————————————3333—————————————3333———————+
E +—44444444————1111—44444444————1111—44444444————1111—44444444————1111———+

PRECHORUS 1:

G +————————————————————+
D |————————————————————+
A |4———————————————0———+
E +————6—————0————0————+

PRECHORUS 2:

G +————————————————————————————————————————————————————————————————+
D |————————————————————————————————————————————————————————————————+
A |—2—2———2—2—5—5————————2—2———2—2—5—5———————2—2———2—2—5—5—————————+
E +—————————————————5—5——————————————————5—5—————————————————5—5———+

+———————————————————————+
|———————————————————————+
|—2—2———2—2—5—5—————————+
+—————————————————5—5———+

PRECHORUS 3:

G +—————————————————————————————————————————————+
D |—————————————————————————————————————————————+
A |—0———1———2———5—5—5—5———0———1———2———5—5—5—5———+
E +—————————————————————————————————————————————+

CHORUS:

G +———————————————————————————————————————————————————————————————————+
D |———————————————————————————————————————————————————————————————————+
A |———————————————————————————————————————————————————————————————————+
E +—6—6—6—6—6—6—6—6—4—4—4—4—4—4—4—4—3———————————————3—3—3—3—3—3—3—3———+

+—————————————————————————————————————————————————————+
|—————————————————————————————————————————————————————+
|—————————————————————————————————————————————————————+
+—6—6—6—6—6—6—6—6—4—4—4—4—4—4—4—4—3———————————————————+

BREAKDOWN 1:

Bass rests

BREAKDOWN 2:

G +———————————————————————————————————————————————————————————————————————————+
D |———————————————————————————————————————————————————————————————————————————+
A |———————3—3—3———————5—5—5———————3—3—3———————5—5—5———————3—3—3———————5—5—5———+
E +—3—3—3———————5—5—5———————3—3—3———————5—5—5———————3—3—3———————5—5—5—————————+

CHORUS:

G +———————————————————————————————————————————————————————————————————+
D |———————————————————————————————————————————————————————————————————+
A |———————————————————————————————————————————————————————————————————+
E +—6—6—6—6—6—6—6—6—4—4—4—4—4—4—4—4—3———————————————3—3—3—3—3—3—3—3———+

+—————————————————————————————————————————————————————+
|—————————————————————————————————————————————————————+
|—————————————————————————————————————————————————————+
+—6—6—6—6—6—6—6—6—4—4—4—4—4—4—4—4—3———————————————————+

OUTRO:

G +———————————————————————————————————————————————————————————————————+
D |———————————————————————————————————————————————————————————————————+
A |—————————3333—————————————3333—————————————3333—————————————3333———+
E +—44444444————1111—44444444————1111—44444444————1111—44444444———————+

esas so algunas pongo solo esas por falta de tiempo ire actualizando el post con las recomentaciones que me digan
Les dejo una imagen de el como es mi bajo no es el mio pero es igual al mio

Es de washburn (buena marca)




ACTUALIZACION: He puesto los nombres de las canciones en negritas para que sea mas facil de distinguir lo hice gracias a una sugerencia
0No comments yet
      GIF
      New