Popular channels

Tablaturas guitarra

hola este es mi primer post y les pongo un par de tablaturas para guitarra

Guns n roses

KNOCKIN ON HEAVENS DOOR

intro
e--3--3-----3|-------3-2h3-2|------0-------------
b--3----3----|-----3--------|----1---1----------1
g--0------0--|---2----------|----------0-------0-
d--0---------|-0------------|--0h2---------0h2---
a--2---------|--------------|--0h3---------0h3---
e--3---------|--------------|--------------------


Solo:
e----------------------------------------------------------
b--------------------15-----------------------13s15--13-12-
g--11s12--14^--12-14-----14^-12-12~---------12-------------
d---------------------------------------s14----------------
a----------------------------------------------------------
e----------------------------------------------------------

e---------------------------------------------15-------
b--13-12-13s15~----13-12-13--13p12------12-13-----13-12
g------------------------------------------------------
d----------------------------------14~-----------------
a------------------------------------------------------
e------------------------------------------------------

e--------15-17^-17-17^-17^-15~---22^ ^-20-19-20--22^-20-19-20--19-----
b----s17---------------------------------------------------------17~-
g--------------------------------------------------------------------
d--------------------------------------------------------------------
a--------------------------------------------------------------------
e--------------------------------------------------------------------

e---------------------------------------
b---15^~~--15^~~------------------------
g-----------------14^~~--14^~~---14--12~
d---------------------------------------
a---------------------------------------
e---------------------------------------

outro: (distortion)
e---------------------------------------------------------
b---20~-----20-19---20-19--17-19p17-17~---20-17--20-17--15
g---------------------------------------------------------
d---------------------------------------------------------
a---------------------------------------------------------
e---------------------------------------------------------

e------------15------------------15----------------------
b--13-15-12~----15--12-10----------15---10s12--10s12-----
g--------------------------12s14----------------------12~
d--------------------------------------------------------
a--------------------------------------------------------
e--------------------------------------------------------

e----------15----17s19--17-15-17-15--20-19-20-22~--20-19-20-22-20-19-20
b--------15---15-------------------------------------------------------
g--14s16---------------------------------------------------------------
d----------------------------------------------------------------------
a----------------------------------------------------------------------
e----------------------------------------------------------------------

e--22^ ^-22^ ^-------22----------------------------
b------------20-22^---22-22--20--22^ ^r22^ ^r22-20~
g------------------------------------------------
d------------------------------------------------
a------------------------------------------------
e------------------------------------------------

e-------------------------------------------------------------
b--20~~--20-19~--20-19--17-19p17-17~--20-17--20-17--13--15-12~
g-------------------------------------------------------------
d-------------------------------------------------------------
a-------------------------------------------------------------
e-------------------------------------------------------------

e--------------------------------------------
b--------------------------------------------
g--12^~~--12-11^~~--11-9^~~---7~--5s4--0~~~~~
d--------------------------------------------
a--------------------------------------------
e--------------------------------------------

LOS SOLOS DE SWEET CHILD O MINE

1st Solo :
e-----------------------------------------------------------|
b---/10--8--7vvvv-/10--8--7vvv--/10--8--------/10--8--------|
g---------------------------------------9vvv----------9vvv--|
d-----------------------------------------------------------|
b-----------------------------------------------------------|
e-----------------------------------------------------------|

e---------------------------------10-------------------|
b--/10--8vvvvv-10b12r10p8--10-b12----10----------------|
g---------------------------------------7vvvvvv---7--7-|
d------------------------------------------------------|
b------------------------------------------------------|
e------------------------------------------------------|

2nd Solo :
e-----------------------------------------------------------|
b---/10--8--7vvvv-/10--8--7vvv--/10--8--------/10--8--------|
g---------------------------------------9vvv----------9vvv--|
d-----------------------------------------------------------|
b-----------------------------------------------------------|
e-----------------------------------------------------------|

e-------------------------------------------10--------------|
b--/10--8vvvvv--/10--8vvvvv--7b8r7---7b8vv-----7b8r7vvvvvv--|
g----------------------------------7------------------------|
d-----------------------------------------------------------|
b-----------------------------------------------------------|
e-----------------------------------------------------------|

e------------------------------10--10--8vvvv--10bvvvvv-12--12-\10-|
b---/10--8--7vvvv-/10--8---10b------------------------------------|
g-----------------------------------------------------------------|
d-----------------------------------------------------------------|
b-----------------------------------------------------------------|
e-----------------------------------------------------------------|

e--10-\8vvvv--7b8r7----------------------------10--10bvvr10--|
b-------------------8-------10b12r10p8---10b12---------------|
g---------------------7vvv-------------9---------------------|
d------------------------------------------------------------|
b------------------------------------------------------------|
e------------------------------------------------------------|

e--------17vvvvv----|
b---17bvvvvvvvvv----|
g-------------------|
d-------------------|
b-------------------|
e-------------------|

jimi hendrix

PURPLE HAZE (intro)

|---------------------|
|---------------------|
|---------------------|
|----7---7---7---7----|
|---------------------|
|--5---5---5---5------|


|---------------------------|---------------------------|
|-------8b------------------|-------8b------------------|
|-----7---------------------|-----7---------------------|
|--/9------7~---/5----------|--/9------7~---/5----------|
|------------------5---5/7~-|------------------5---5/7~-|
|--------------------0------|--------------------0------|

|-----------------------|-------------------------------------|
|-----------------------|-------------------------------------|
|-----------------------|----------------------------7--7-7-9-|
|-----5-7b-5---5--------|-----5-7b-5-7---5--0-0-5/9-----------|
|--/7------------0-3----|--/7---------------------------------|
|--------------------3--|-------------------------------------|



RED HOUSE

|-----11----11----------11----11----11-|-------10----10-----10-----10-----10-|
|-/10-10----------10----10----10----10-|-10/9--9-----9---9--9------9---9--9--|
|-/11----11----11----11----11----11----|-11/10----10-----------10---------10-|
|--------------------------------------|-------------------------------------|
|--------------------------------------|-------------------------------------|
|--------------------------------------|-------------------------------------|


|------------------------------|-------------------7------9-7---------|
|-----10'~~10'~~10'~~10'~~-----|--10'-10-10'-10'-7---10-7-----10-7----|
|----------10---10---10--------|-------------9---------------------9'-|
|------------------------------|--------------------------------------|
|-9----------------------------|--------------------------------------|
|-7----------------------------|--------------------------------------|


|------------------|----------------------7-------7--------|
|------------7~~~--|-------------------7-----10~-----7-----|
|-7h9'--7~~~~~~~~--|-7/8--9'--7~~--9'----------------7--9'-|
|------------------|---------------------------------------|
|------------------|---------------------------------------|
|------------------|---------------------------------------|


|---7-7--------------------------------|
|-7---10/7---7h9p7---------------------|
|----------9-------9-7/8---------------|
|------------------------9-7-----------|
|----------------------------9-8-7-6~~-|
|--------------------------------------|


|-----------------------------------------------|
|------------------------------12~-14'--14'-14'-|
|---------------------11-12/13------------------|
|-------------9-11/13---------------------------|
|-------9~-11-----------------------------------|
|--9/11-----------------------------------------|


|------14-----14------------------------|---------------------------14-|
|-14'~----14'----14'-14-12h14p12h14-12~-|---15'15-15~-15'15-12~-14'----|
|---------------------------------------|------------------------------|
|---------------------------------------|------------------------------|
|---------------------------------------|------------------------------|
|---------------------------------------|------------------------------|

There's a...
|----------------7----7-9h10p7h10p7--9'-7------|---7---------------------|
|-14-12~12-----7---10-7-------------------7----|-7-----------------------|
|----------4/8------------------------------9'-|-----7-------------------|
|----------------------------------------------|-------9-----------------|
|----------------------------------------------|---------9---------------|
|----------------------------------------------|-------------------------|


There's a red house over yonder.
That's where my baby stays.
Lord, there's a red house over yonder,
Lord, that's where my baby stays.
I ain't been home to see my baby
In ninety-nine and one half days.

Wait a minute, something's wrong here,
The key won't unlock this door.
Wait a minute, something's wrong,
Lord have mercy, this key won't unlock this door.
Something's gone wrong here--
I have a bad, bad feeling
That my baby don't live here no more.

That's alright--I still got my guitar.


Look out, now!
|---------------10-12'---10-------10'-|
|----12-12~~12~~------------12~~~-----|
|-11----------------------------------|
|-------------------------------------|
|-------------------------------------|
|-------------------------------------|


|----------14'---14-12-14--10-12-12'--10h12p10----10h12p10----|
|-------12-------------------------------------12----------12-|
|-11/13-------------------------------------------------------|
|-------------------------------------------------------------|
|-------------------------------------------------------------|
|-------------------------------------------------------------|


|-10h12p10----10-12'---10h12p10---------7--------------------|
|----------12-------------------12-10'--7-7-7h10p7-----------|
|--------------------------------------------------9-7---7/8-|
|------------------------------------------------------9-----|
|------------------------------------------------------------|
|------------------------------------------------------------|


|------7------9p7---10p7---10p7----...
|----7---10p7-----9------7------7--...
|-9'-------------------------------...
|----------------------------------...
|----------------------------------...
|----------------------------------...


Well, I might as well go back over yonder
Way back among the hills.
Yeah, that's what I'm gonna do.
Lord, I might as well go back over yonder
Way back yonder acorss the hills.

Even if my baby don't l_v_ me no more,
I know her sister will.


mario bross


1er nivel

--12-12-12-----12--15--------
------------13---------------
-------------------------12--
-----------------------------
-----------------------------
-----------------------------

|----------------------------------12--15-17--13-15--12-----------|
|-13-----------------12----------------------------------13-15-12-|
|------12--------14------15-14--12--------------------------------|
|-----------14----------------------------------------------------|
|-----------------------------------------------------------------|
|-----------------------------------------------------------------| x2

|-15-14-13-------------------------------15-14-13---------20--20-20-
|----------16--17--------13-----13-15-------------16--17------------
|------------------13-14-----14-------------------------------------
|-------------------------------------------------------------------
|-------------------------------------------------------------------
|-------------------------------------------------------------------

-15-14-13--------------------------------------------|
----------16--17--------13-----13-15----16---15---13-|
------------------13-14-----14-----------------------|
-----------------------------------------------------|
-----------------------------------------------------|
-----------------------------------------------------| x2

--------------------12-------------------------------12--
--13-13--13--13-15-----13-----------13-13--13--13-15-----
---------------------------14-12-------------------------
---------------------------------------------------------
---------------------------------------------------------
---------------------------------------------------------

* (see bottom of file)
--------------------12--------------12-12--12-----12--15--------
--13-13--13--13-15-----13----------------------13---------------
---------------------------14-12----------------------------12--
----------------------------------------------------------------
----------------------------------------------------------------
----------------------------------------------------------------


|----------------------------------12--15-17--13-15--12-----------|
|-13-----------------12----------------------------------13-15-12-|
|------12--------14------15-14--12--------------------------------|
|-----------14----------------------------------------------------|
|-----------------------------------------------------------------|
|-----------------------------------------------------------------| x2

|-12----------------13--13----------17--17-17-15--13-12-----------
|----13--------------------------12---------------------13--------
|--------12--13--14--------14-------------------------------14-12-
|-----------------------------------------------------------------
|-----------------------------------------------------------------
|-----------------------------------------------------------------

-12----------------13--13----------13--13-13-12------------------|
----13--------------------------12---------------15-13-----------|
--------12--13--14--------14-------------------------------------|
-------------------------------------------------------14--14----|
--------------------------------------------------------------15-|
-----------------------------------------------------------------| x2

--------------------12-------------------------------12--
--13-13--13--13-15-----13-----------13-13--13--13-15-----
---------------------------14-12-------------------------
---------------------------------------------------------
---------------------------------------------------------
---------------------------------------------------------

--------------------12--------------12-12--12-----12--15--------
--13-13--13--13-15-----13----------------------13---------------
---------------------------14-12----------------------------12--
----------------------------------------------------------------
----------------------------------------------------------------
----------------------------------------------------------------

--12----------------13--13----------17--17-17-15--13-12------------
-----13--------------------------12---------------------13---------
---------12--13--14--------14-------------------------------14-12--
-------------------------------------------------------------------
-------------------------------------------------------------------
-------------------------------------------------------------------

--12----------------13--13----------13--13-13-12-------------------
-----13--------------------------12---------------15-13------------
---------12--13--14--------14--------------------------------------
--------------------------------------------------------14--14-----
---------------------------------------------------------------15--
-------------------------------------------------------------------



|----------------------------------12--15-17--13-15--12-----------|
|-13-----------------12----------------------------------13-15-12-|
|------12--------14------15-14--12--------------------------------|
|-----------14----------------------------------------------------|
|-----------------------------------------------------------------|
|-----------------------------------------------------------------| x2

|-15-14-13-------------------------------15-14-13---------20--20-20-
|----------16--17--------13-----13-15-------------16--17------------
|------------------13-14-----14-------------------------------------
|-------------------------------------------------------------------
|-------------------------------------------------------------------
|-------------------------------------------------------------------

-15-14-13--------------------------------------------|
----------16--17--------13-----13-15----16---15---13-|
------------------13-14-----14-----------------------|
-----------------------------------------------------|
-----------------------------------------------------|
-----------------------------------------------------| x2
--------------------12-------------------------------12--
--13-13--13--13-15-----13-----------13-13--13--13-15-----
---------------------------14-12-------------------------
---------------------------------------------------------
---------------------------------------------------------
---------------------------------------------------------


2do nivel

E||-------------------------------------------------|
B||-------------------------------------------------|
G||-------------------------------------------------|
D||-----------------------3-3-0-0-1-1-3-3-0-0-1-1---|
A||3-3-0-0-1-1-3-3-0-0-1-1--------------------------|
E||-------------------------------------------------|

E||-------------------------------------------------||
B||-------------------------------------------------||
G||---------------------321-------------------------||
D||------------------432---1-0----------------------||
A||-6-5-3-6-4----4-3----------1-0-------------------||
E||----------4-3------------------4-3---------------||

y otras canciones

FELIZ CUMPLEAÑOS

E||-----------------|-------1----0----|-----------------|-------3----1----|
B||--1----1----3----|--1--------------|--1----1----3----|--1--------------|
G||-----------------|-----------------|-----------------|-----------------|
D||-----------------|-----------------|-----------------|-----------------|
A||-----------------|-----------------|-----------------|-----------------|
E||-----------------|-----------------|-----------------|-----------------|



------------8----|--5----1----1----|--0-------------|--6----6----5----|
--1----1---------|-----------------|-------3--------|-----------------|
-----------------|-----------------|----------------|-----------------|
-----------------|-----------------|----------------|-----------------|
-----------------|-----------------|----------------|-----------------|
-----------------|-----------------|----------------|-----------------|



--1----3--------|--1--------||
----------------|--1--------||
----------------|--2--------||
----------------|--3--------||
----------------|--3--------||
----------------|--1--------||

MARCHA PERONISTA (no soy peronista)

Intro :

E------------------------6-7-8-------------------------|
B------------------6-6-9---------6-6-9-11-12-13-11-9-6-|
G---------3-4-5----------------------------------------|
D---3-3-6------------------------3-3-6--8--9-10-8--6-3-|
A------------------------------------------------------|
E------------------------------------------------------|


Esta es la parte cantada del principio :

E---------------------------------------------------------------|
B---5---5---5---5---5---5---5----5---3---3---3---3---7-7-7-8-7-7|
G----6---6---6------6-------6-------------4---4---4-------------|
D-----7---7-----------7-------7------------5---5----------------|
A---------------------------------------------------------------|
E---------------------------------------------------------------|

Estribillo ' Peron, peron, que grande sos...'

E-------------------------------------------|
B-------------------------------------------|
G--5-5-5-5-3-------------------6--2-3-4-5---|
D------------6-5-6--x2---3-3-3--------------|
A-------------------------------------------|
E-------------------------------------------|


E-------------------------------------------|
B---5--7--8--9--7--5--4--2------------------|
G-------------------------------------------|
D---3--5--6--7--5--3--2--0------------------|
A-------------------------------------------|
E-------------------------------------------|


AGE OF EMPIRES 2

e|-------------------------------------------------
B|-------------------------------------------------
G|-------------------------------------------------
D|-------------------------------------------------
A|------0--3--2--0---2-------0----3---2---0---5----
E|--0--------------------0-------------------------

e|-------------------------------------------------
B|-------------------------------------------------
G|-------------------------------------------------
D|-------------------------------------------------
A|------0--3--2--0---2---2---3---2-----------------
E|--0---------------------------------3-----5------


e|-------------------------------------------------
B|-------------------------------------------------
G|-------------------------------------------------
D|------0--3--2--0---2-------0----3---2---0---5----
A|--0--------------------0-------------------------
E|-------------------------------------------------


e|-------------------------------------------------
B|-------------------------------------------------
G|-------------------------------------------------
D|------0--3--2--0---2---2---3---2-----------------
A|--0---------------------------------3-----5------
E|------------------------------------------------

y...
listo nada mas por ahora
pd:dejenme puntos estuve como 3 horas haciendo esto!!!
0
0
0
0No comments yet